Metallica

Aint My Bitch2 Tabs



More from Metallica

Metallica Tabs
Metallica Chords
Metallica Bass
Metallica Lyrics

Artist: Metallca


Song: Ain't my bitch key to my symbols
Author: Brahms
E-mail: peterkennedy@ukonline.co.uk p = pulloff
h = hammer
I think this is tabbed right but if you can see any mistakes E-Mail me and let me know. / = slide
By the way this is not a song for beginers.

Guitar

Tabbed By Brahms



Intro

e)---------------------------------------------------------------------------------------
a)---------------------------------------------------------------------------------------
d)---------------------------------------------------------------------------------------
g)---------------------------------------------------------------------------------------
b)----5------7----------5----5----6----7-----7------7---------7--------7-------5----
E)----0------0-----0----3----0----0----0-----0------0---------0--------0-------0---


-------------------------------------------------------------------------------------------------
-------------------------------------------------------------------------------------------------
-------------------------------------------------------------------------------------------------
------------------5-----------------------------------------------------------------------------
---7----7----------------7-------7-------5------7-------7--------7-------7-------5------7--
---0----0----------------0-------0-------0------0-------0--------0-------0-------0------0--



----------------------------------------------------------------------------------------------------------------
----------------------------------------------------------------------------------------------------------------
----------------------------------------------------------------------------------------------------------------
--------5-----------------------------------------------------------------------------5------------------------
--------5-------5----6-------7----7-----7------7-----7------5-------7-----7---------------7-----7-----5--
---0----3-------0----0-------0----0-----0------0-----0------0-------0-----0---------------0-----0-----0--



--------------------------------------------------------------------------------------------------------------------
--------------------------------------------------------------------------------------------------------------------
--------------------------------------------------------------------------------------------------------------------
---------------------------------------5---------------------------------------------------------------------------
---7---7----7----7----5---7---------5----------5-----6-----7-----7----7-------------7------------7------5---
---0---0----0----0----0---0---0-----3----------0-----0-----0-----0----0------0-----0-----0------0------0---



---------------------------------------------------------------------------------------------------------------------------------
---------------------------------------------------------------------------------------------------------------------------------
---------------------------------------------------------------------------------------------------------------------------------
----------------5------------------------------------------------------------------------------------------------5--------------
----7----7------------7-----------7-----5-----7------7-----7------------7---------5-----7-------------------5------5---6--
----0----0------------0-----0-----0-----0-----0------0-----0-----0-----0----0----0-----0------0------0----3------0---0--



--------------------------------------------------------------------------------------------------------------------
--------------------------------------------------------------------------------------------------------------------
--------------------------------------------------------------------------------------------------------------------
----------------------------------------------5---------------------------------------------------------------------
---7---7---7--------7--------7----5----7---------7---------7-----5----7----7----7----------7--------5----7---
---0---0---0---0----0---0---0----0----0---------0----0----0-----0----0----0----0----0----0----0---0----0---



-------------------------------------------------------------------------------------------------------------
-------------------------------------------------------------------------------------------------------------
-------------------------------------------------------------------------------------------------------------
------------------5--------------------------5----------------7------------5-------------------------------
------------------5---------5--------7----------------7---------------7-----------7-------5----------7---
---0------0------3------------------------------------------------------------------------------------------



------------------------------------------------------------------------------------------------------------------------------------------------------------------------------
------------------------------------------------------------------------------------------------------------------------------------------------------------------------------
------------------------------------------------------------------------------------------------------------------------------------------------------------------------------
-------5-------------------7---------------5-------------------------------5---------------5-----------------------5-----------7-------------5------------12------14----
--------------------7--------------7----------------7-----5--------7---------------7---------------5-------7-------------7------------7------------7---------------------
-------------------------------------------------------------------------------------------------------------------------------------------------------------------------------



-----------------------------------------------------------------------------------------------------------------------------------------------------------------
-----------------------------------------------------------------------------------------------------------------------------------------------------------------
-----------------------------------------------------------------------------------------14--------------------------------------------------------------12----
-------12---------------14--------------12-----------------------------12------------14------------12-------------------------------12-------------12----
------------------14-------------14-------------14-----12------14------------14------------14-----------14---------12------14-----------14------------
-----------------------------------------------------------------------------------------------------------------------------------------------------------------


1st verse
-------------------------------------------------------------------------------------------------------------------------------------------------------------
-------------------------------------------------------------------------------------------------------------------------------------------------------------
----------------------------------------------------------------------------------------------------------------------------5--------------------------------
---------------------5------------5---------6---------7--------7-----7------------7------------7-----5------7----7--------------7-----------7------5---
---------------------5------------0---------0---------0--------0-----0-------0----0-----0-----0-----0------0----0--------------0-----0-----0------0---
------0------0------3----------------------------------------------------------------------------------------------------------------------------------------



----------------------------------------------------------------------
----------------------------------------------------------------------
----------------------------------------------------------------------
----7----7----7-------------7----7-----5-------7---------------5--
----0----0----0-------0-----0----0-----0------0-------0-------5--
------------------------------------------------------------------3--



Chorus

------------------------------------------------------------------------------
------------------------------------------------------------------------------
-----4------------x----x------2--------x------x-----------------------------
-----4------------x----x------2--------x------x-----5-----------------------
-----2------------x----x------0--------x------x-----5-------5------4----3--
------------------------------------------------------3-------3------2----1--



--------------------------------------------------------------------------------------------------------------------------------------------------------------------------------
--------------------------------------------------------------------------------------------------------------------------------------------------------------------------------
--------------------------------------------------------------------------------------------------------------------------------------------------------------------------------
--------------------------------------------------------------------------------------------------------------------------------------------------------------------------------
--------------------------------------------------------------------------------------------------------------------------------------------------------------------------------
---0----0---0----0----3-----0---0-----0----0----0----3----0----0----0----3----0----0----0---0----0----3----0----0---0----0----0----3----0---0---0-----3-----0---
                                    p                                          p                           p                                         p                                        p                          p




------------------0--------------------0---------------------0------------------------------------------------------------
-----------0--------------------0-------------------0---------------------------------------------------------------------
------4-------------------2-----------------------------------------------------------------------------------------------
------4-------------------2---------------------5-------------------------------------------------------------------------
------2-------------------0---------------------5----------------------5--------4---------3-----2---------5--------6---
-------------------------------------------------3----------------------3--------2---------1-----0---------0--------0---



-------------------------------------------------------------------------------------------------------------------
-------------------------------------------------------------------------------------------------------------------
----4------------x----x-------2------------x---x-----------------------------------------------------------------
----4------------x----x-------2------------x---x-----5-----------------------------------------------------------
----2------------x----x-------0------------x---x-----5----------5-------4-------3--------2--------5------6----
-------------------------------------------------------3----------3-------2-------1--------0--------0------0----



------------------------------------------------------------------------------------------------------------------------------------------------------------
------------------------------------------------------------------------------------------------------------------------------------------------------------
------------------------------------------------------------------------------------------------------------------------------------------------------------
-----------------------------------------------------------------------5-----------------------------------------------------------------------------------
----7-----7-----7-----------7--------------7-----5-----7-----7--------------7------------7-------5----7----7-----7-----------7------------5----7---
----0-----0-----0-----0-----0------0------0-----0-----0-----0--------------0-----0------0-------0----0----0-----0-----0-----0-----0-----0----0---



--------------------------------------------------------------------------------------------------------------------------------------------------------------------------------
--------------------------------------------------------------------------------------------------------------------------------------------------------------------------------
--------------------------------------------------------------------------------------------------------------------------------------------------------------------------------
-------------------5------------------------------5--------------7---------------5--------------------------------5-------------7---------------5-------------12------14---
-------------------5-----------5-----------7--------------7--------------7----------------7-------5--------7------------7----------------7------------7--------------------
-----0------0-----3------------------------------------------------------------------------------------------------------------------------------------------------------------


-----------------------------------------------------------------------------------------------------------------------------
---------------------------14-----------------------------------------------------------------------------------------------
------12------------------14-----------------12---------------------------------------------12--------------------12----
----------------14------------------14-----------------14-----------12-----------14------------------14---------12----
-----------------------------------------------------------------------------------------------------------------------------
-----------------------------------------------------------------------------------------------------------------------------


2nd verse

-------------------------------------------------------------------
-------------------12-------14-------14---------12-------------
-------------------12-------14-------14---------12-------12---
----------/14-----------------------------------------------14---
-------------------------------------------------------------------
-------------------------------------------------------------------


                                                                                                                           h
---------------------------------------------------------------------------------------------------------------------
---------------14-------12-----------12---------14----------12---------12--------12------13-----------14----
---------------14-------12-----------12---------14----------12---------12--------12------13-----------14----
---------------------------------------------------------------------------------------------------------------------
---------------------------------------------------------------------------------------------------------------------
---------------------------------------------------------------------------------------------------------------------



-----------------------------------------------------------------------------------------------------------------------------------------------
-----------------------------------------------------------------------------------------------------------------------------------------------
-----------------------------------------------------------------------------------------------------------------------------------------------
---------------------------------------------------------5-------------------------------------------------------------------------------------
------7----7-----7----7----7-----5------7-----7------------------7-------7-----5----7------7-----7-----7---------7--------5------7-----
------0----0-----0----0----0-----0------0-----0------------------0-------0-----0----0------0-----0-----0---------0--------0------0-----


-------------------------------------------------------------------------------------------------------
-------------------------------------------------------------------------------------------------------
-------------------------------------------------------------------------------------------------------
--------------5-----------------------5--------------7--------------5--------------------------------
--------------5-------5-------7---------------7------------7---------------7--------5---------7----
------0------3----------------------------------------------------------------------------------------


-------------------------------------------------------------------------------------------------------------------------------------------------------------------------
-------------------------------------------------------------------------------------------------------------------------------------------------------------------------
-------------------------------------------------------------------------------------------------------------------------------------------------------------------------
------5---------------7-------------5--------------------------------5------------------5---------------------------5---------7-----------5--------------------------
--------------7--------------7--------------7--------5--------7--------------7------------------------5-------7---------7----------7-----------7------5--------7---
-------------------------------------------------------------------------------------------------------------------------------------------------------------------------



-------------------------------------------------------------------------------------------------------------------------
-------------------------------------------------------------------------------------------------------------------------
-------------------------------------------------------------------------------------------------------------------------
-------5-----7-----7--------5------7---------------------5---------------7--------------5----------------------------
--------------------------------------------5-------7---------------7-------------7--------------7------5--------7---
------------------------------------------------------------------------------------------------------------------------


solo

-------------------------------------------------------------------------------------------------------
----------------------------------------------------------------------11---------/--11----12---13--
----/11-------11----9--------------11------------9---/---11--------------------------------------
----/11-----------------------11---------------------------------------------------------------------
-------------------------------------------------------------------------------------------------------
------------------------------------------------------------------------------------------------------



--------------------------------------------------------------------
--------------------------------------------------------------------
------2---------------4---------------2---------------------------
------2---------------4---------------2---------------------------
-------------4---------------4---------------4--------2------4---
-------------------------------------------------------------------


-----------------------------------------------------------------------------------------------------------------------------------------
-----------------------------------------------------------------------------------------------------------------------------------------
------2--------------2------------------------2-----------4--------------2---------------------2----------4----2---------------------
------2--------------2------------------------2-----------4--------------2---------------------2----4----4----2----4----------------
------------4-----------------2----------4---------4---------------4---------4----2-----4---------------------------------2-----4---
-----------------------------------------------------------------------------------------------------------------------------------------


-------------------------14-----------------------------14-----------14---------------------/--17------------16-------------16---------
--------12--/--14-------------14-----12-/---14------------------14--------------------------------16----------16--------------16--
---------------------------------------------------------------------------------------------------------------------------------------------
---------------------------------------------------------------------------------------------------------------------------------------------
---------------------------------------------------------------------------------------------------------------------------------------------
---------------------------------------------------------------------------------------------------------------------------------------------


-------------------------------------------------------------------------------------------------------------------------------------------------------------------
-------------------------------------------------------------------------------------------------------------------------------------------------------------------
------2--------------4-----------2----------------------------2-------------2-----------4-------3---------4------------6------------4-------------------------
------2--------------4-----------2----------------------------2-------------2-----------4-------3---------4------------6------------4-------------------------
------------4-------------4-------------4--------2------4-----------4-------------------------------------------6------------6------------6------4------6----
------------------------------------------------------------------------------------------------------------------------------------------------------------------


---------------16--------------16-----------------/---19------------------------------------------------------------------
------16--------------16---------------16----------------------/--12------------/---7------------5------9---------7---
-------------------------------------------------------------9---------------------------------------------------------------
-----------------------------------------------------------------------------------------------------------------------------
-----------------------------------------------------------------------------------------------------------------------------
-----------------------------------------------------------------------------------------------------------------------------


----------------------------------------------------------------------------------------------------------------------------------------------
----------------------------------------------------------------------------------------------------------------------------------------------
------4------------6------------4-----------------------4-----------4-----------------4--------------6-----------4------------------------
------4------------6------------4-----------------------4-----------4-----------------4--------------6-----------4------------------------
------------6------------6-------------6----4----6---------6--------------4-----6-----------6-------------6-----------6------4-----6---
---------------------------------------------------------------------------------------------------------------------------------------------



------------------------------------------------------------------------------------------------------------------------------------------------
------------------------------------------------------------------------------------------------------------------------------------------------
--------4-------6-----6------6------4------6----------------4------------6------------4-----------------------4------4-----4--------------
--------4-------6-----6------6------4------6----------------4------------6------------4-----------------------4------4-----4--------------
---------------------------------------------------4----6-----------6-----------6-------------6----4-----6------------------------5----7---
-----------------------------------------------------------------------------------------------------------------------------------------------


------------------11--/--14---------14-----------------------------------------------------------------11--/--14---14---/-19----
----12----11---------------------------------/--7--------------5----9----------7--------12---11-----------------------------------
------------------------------------------------------------------------------------------------------------------------------------------
------------------------------------------------------------------------------------------------------------------------------------------
------------------------------------------------------------------------------------------------------------------------------------------
------------------------------------------------------------------------------------------------------------------------------------------


---------------------------------------------------------------------------------------------------------------------------------
---------------------------------------------------------------------------------------------------------------------------------
------4----6----6----6----4----6--------------4-----------6-----------4-----------------------4-----4------4---------------
------4----6----6----6----4----6--------------4-----------6-----------4-----------------------4-----4------4---------------
-------------------------------------4----6-----------6----------6-----------6------4-----6-----------------------5-----7---
---------------------------------------------------------------------------------------------------------------------------------


----/--19----------------------------/---19----------------------/--12-----------------------
------------------------------------------------------------------------------/--12--------7--
--------------------------------------------------------------------------------------------7--
------------------------------------------------------------------------------------------------
------------------------------------------------------------------------------------------------
------------------------------------------------------------------------------------------------


-----------------------------------------------------------------------------------
-----------------------------------------------------------------------------------
-----------------------------------------------------------------------------------
------5-------------7--------------5---------------------------5----------5-----
------------7---------------7-----------7------5------7------------7-----------
----------------------------------------------------------------------------------


----------------------------------------------------------------------------------------------
-----9--------------------------------9--------------------------9----------------------9---
-----9--------------------------------9--------------------------9----------------------9---
----------------------------------------------------------------------------------------------
----------------------------------------------------------------------------------------------
----------------------------------------------------------------------------------------------


----------------------------------------------------------------------------------------------------------------------------------------------------
--------------------------------------------------------------------------------------------------12----------------------12-----------------12--
-----4-------------x----x-------2------------x--x-------5---------------------------------------12---------------------12-----------------12--
-----4-------------x----x-------2------------x--x-------5------5------4-----3-------------------------------------------------------------------
-----2-------------x----x-------0------------x--x-------3------3------2-----1---0---0---0------------0----0----0--------------0----0--------
----------------------------------------------------------------------------------------------------------------------------------------------------


3rd verse

---------------------------------------------------------------------------------------0----------------0---
--------------------------------------------------------------------------------0------------------0--------
-------------------12---------------------12---------------12-------4---------------------2--------------
-------------------12---------------------12---------------12-------4---------------------2--------------
-----------------------------------------------------------------------2---------------------0--------------
----0---0---0--------------0---0---0-------------0---0---------------------------------------------------


----------------0-----------------------------------------------------------------------------------------------------------------------------
----------0-----------------------------------------------------------------------------------------------------------------------------------
-----------------------------------------------------------------------------------------------------------------------------------------------
----5-----------------------------------------------------------------------------------------------------------------------------------------
----5----------------5--------4------3------------------------------------------------------------------------------------------------------
----3----------------3--------2------1------0----0------0----0-----3------0-----0-----0-----0-----0----3-----0----0---0----3----0---
                                                                                                   p                                                 p                           p


--------------------------------------------------------------------------------------------------------
--------------------------------------------------------------------------------------------------------
--------------------------------------------------------------------------------------------------------
--------------------------------------------------------------------------------------------------------
--------------------------------------------------------------------------------------------------------
-----0-----0-----0-----0----3-----0-----0-----0----0-----0-----3----0----0-----0------3-----0---
                                             p                                               p                                p


----------------------------------------12----12----------------12-----------------12-----12----12----12----------12----
-----8-------------8--------/--12------------------/--12-----12-------/--12----12-----12----12----12----------12----
----------------------------------------------------------------------------------------------------------------------------------
----------------------------------------------------------------------------------------------------------------------------------
----------------------------------------------------------------------------------------------------------------------------------
----------------------------------------------------------------------------------------------------------------------------------



-------------12-------12------12-------12-----------12-------------------12------12------12------12-------12--------12-----
----/--12---12-------12------12-------12-----------12---------/--12-------------------------------------------------------------
----------------------------------------------------------------------------------------------------------------------------------------
----------------------------------------------------------------------------------------------------------------------------------------
----------------------------------------------------------------------------------------------------------------------------------------
----------------------------------------------------------------------------------------------------------------------------------------


---/--12------------------------------------------------------------------------------------------------
----------------12-------------------------------------------------------------------------------------
---------------------------------------------9-------------12--------9---------------------------------
----------------------------/--9------------------------------------------------------------------------
-----------------------------------------------------------2----5----4------3----------5----------6--
-----------------------------------------------------------0----3----2------1----------0----------0--



--------------------------------------------------------------------------------------------------------
--------------------------------------------------------------------------------------------------------
-------------------------------------------------------------------------------------------------------
-------------------------------------------------------------------5-----------------------------------
-----7-----7------7------7-------7---5--------7-------7--------------------7----------7-------5---
-----0-----0------0------0-------0---0--------0-------0--------------------0----------0-------0---



--------------------------------------------------------------------
--------------------------------------------------------------------
--------------------------------------------------------------------
--------------------------------------------------------------------
----7-----7-------7------7-----5-----7----------------------2---
----0-----0-------0------0-----0-----0-------0-----3-------0---
Listen to this song at Rdio  
Get this song at amazon.com     Ringtones Ringtones  eMusic  

Learn to play: Songwriting, Piano, Harmonica, Guitar

Related Metallica Tabs

Little Boys Youre Going To Hell tabs
The Call Of Ktulu tabs
Minus Human Bass tabs
Star Wars Imperial March tabs
And Justice For All Lead Intro tabs
Today Your Love, Tomorrow The World tabs
Battery(intro) tabs
Master Of Puppets Btab tabs
For Whome The Bell Tolls tabs
Ride The Lightning(album) tabs
The Four Horsemen Solo tabs
Killing Time tabs
Disposable Heroes,correct(rate) tabs
Man In The Box tabs
Damage Inc,correct(rate) tabs
I Am Evil tabs
Enter Sandman Acoustic tabs
Noise tabs
I Disappear Solo tabs
The Thing That Should Not Be (live) tabs


Guitar Tabs




All tabs are property and copyright of their owners. All tabs provided for educational purposes only. Privacy Policy, DMCA, Muzikum