Metallica

Ain't My Bitch Bass Tabs



More from Metallica

Metallica Tabs
Metallica Chords
Metallica Bass
Metallica Lyrics




Note - i was tired of the other tabs on the web so i made this one.

Riff 1 - 168 bpm
Gb|-----------------|-----------------|-----------------|-----------------|
Db|-----------------|-----------------|-----------------|-----------------|
Ab|-----------------|-----------------|-----------------|-----------------|
Eb|-------------0-0-|-0-3---------0-0-|-----------------|-----------------|

Gb|-----------------|-----------------|-----------------|-----------------|
Db|-----------------|-----------------|-----------------|-----------------|
Ab|-----------------|-----------------|-----------------|-----------------|
Eb|-------------0-0-|-0-3---------0-0-|-----------------|-----------------|

Gb|-----------------|-----------------|-----------------|-----------------|
Db|-----------------|-----------------|-----------------|-----------------|
Ab|-----------------|---------------R-|-----------------|-----------------|
Eb|-------------0-0-|-0-3---------0---|-0-0-0-0-0-0-0-00|-0-0-0-0-0-0-0-00|

Gb|-----------------|-----------------|-----------------|-----------------|
Db|-----------------|-----------------|-----------------|-----------------|
Ab|-----------------|-----------------|-----------------|-----------------|
Eb|-0-0-0-0-0-0-0-0-|---0-3-------5-3-|-0-0-0-0-0-0-0-00|-0-0-0-0-0-0-0-00|

Gb|-----------------|-----------------|-----------------|-----------------|
Db|-----------------|-----------------|-----------------|-----------------|
Ab|-----------------|-----------0-2/5-|-7-7-7-7-7-777-7-|-7-7-7-7-7-7-7-7-|
Eb|-0-0-0-0-0-0-0-0-|---0-3-----------|-----------------|-----------------|

Gb|-----------------|-----------------|-----------------|-----------------|
Db|-----------------|-----------------|-----------------|-----------------|
Ab|-7-7-7-7-7-7-7---|-7---------------|-----7---7---7---|-----7---7---7---|
Eb|---------------0-|---0-3---3---5-3-|-0-0---0---0---00|-0-0---0---0---0-|

Gb|-----------------|-----------------||
Db|-----------------|-----------------||
Ab|---7-7-7-7-7-7---|-7---------------||
Eb|-0-------------0-|---0-3-3-3/7-5-3-||

Riff 2
Gb|-----------------|-----------------|-----------------|-----------------|
Db|-----------------|-----------------|-----------------|-----------------|
Ab|-----------------|-----------------|-----------------|-----------------|
Eb|-0-0-0-0-0-0-0-00|-0-0-0-0-0-0-0-00|-0-0-0-0-0-0-0-0-|---0-3-------5-3-|

Gb|-----------------|-----------------|-----------------|-----------------|
Db|-----------------|-----------------|-----------------|-----------------|
Ab|-----------------|-----------------|-----------------|-----------------|
Eb|-0-0-0-0-0-0-0-00|-0-0-0-0-0-0-0-00|-0-0-0-0-0-0-0-0-|---0-3---3-3-5-3-|

Gb|-----------------|-----------------|-----------------|-----------------|
Db|-----------------|-----------------|-----------------|-----------------|
Ab|-----------------|-----------------|-----------------|-----------------|
Eb|-5-5-5-5-5-5-5-33|-5-5-5-555-5-5-33|-5-5-5-5-5-5-0-5-|---5-3-------3\--|

Gb|-----------------|-----------------|-----------------|-----------------|
Db|-----------------|-----------------|-----------------|-----------------|
Ab|-----------------|-----------------|-----------------|-5h7-------------|
Eb|-0-------------0-|-0-------------0-|-0-------------0-|---0---------7\--|

Gb|-----------------|-----------------|-----------------|-----------------|
Db|-----------------|-----------------|-----------------|-----------------|
Ab|-----------------|-----------------|-----------------|-----------------|
Eb|-0-0-0-0-0-0-0-0-|-0-0-0-0-0-0-0-0-|-7---7-7-7-7-7-00|-5-5-5-5-5---5-00|

Gb|-----------------|-----------------|-----------------|-----------------|
Db|-----------------|-----------------|-----------------|-----------------|
Ab|-----------------|-----------------|-----------------|-----------------|
Eb|-3-3-3-3-3-3-2-1-|-0000300000300030|-0000300000300030|-7---7-7-7-7-7-7-|

Gb|-----------------|-----------------|-----------------||
Db|-----------------|-----------------|-----------------||
Ab|-----------------|-----------------|---R-------------||
Eb|-5-5-5-5-5-5-5-5-|-3-3-3-3-3-3-2-1-|-0---------------||

Riff 1a
Gb|-----------------|-----------------|-----------------|-----------------|
Db|-----------------|-----------------|-----------------|-----------------|
Ab|-----------------|-----------------|-----------------|-----------0-2/5-|
Eb|-0-0-0-0-0-0-0-00|-0-0-0-000-0-0-0-|-0-0-0-0-0-0-0-0-|---0-3-----------|

Gb|-----------------|-----------------|-----------------|-----------------||
Db|-----------------|-----------------|-----------------|-----------------||
Ab|-7-7-7-777-7-7-77|-7---7---7---7---|-------7-7-7-----|-7---------------||
Eb|-----------------|---0---0---0---0-|-0-0-0-------0-0-|---0-3----/7-5-3-||

Play Riff 2

Lead Into Next Section
Gb|-----------------|-----------------|-----------------|-----------------|
Db|-----------------|-----------------|-----------------|-----------------|
Ab|-----------------|-----------------|-----------------|-----------------|
Eb|-----------------|-----------------|-------------0-0-|-0-3----\0-------|

Gb|-----------------|-----------------|-----------------|-----------------||
Db|-----------------|-----------------|-----------------|-----------------||
Ab|-----------------|-----------------|-----------------|-----------------||
Eb|-----------------|-----------------|-----------------|-----------------||

Riff 3
Gb|-----------------|-----------------|-----------------|-----------------|
Db|-----------------|-----------------|-----------------|-----------------|
Ab|-----------------|-----------------|-----------------|-----------------|
Eb|-0-0-0-0-0-0-0-0-|-0-0-0-0-0-0-0-0-|-0-0-0-0-0-0-0-0-|-0-0-0-0-0-0-0-0-|

Gb|-----------------|-----------------|-----------------|-----------------|
Db|-----------------|-----------------|-----------------|-----------------|
Ab|-----7-----------|-----------------|-----------------|-----------------|
Eb|-0-0-0---0-0-0-0-|-0-0-0-0-0-0-0-0-|-0-0-0-0-0-0-0-0-|-0-0-3---3--/5-3-|

Gb|-----------------|-----------------|-----------------|-----------------|
Db|-----------------|-----------------|-----------------|-----------------|
Ab|-----7-------7---|-----7-------7---|---7-----7---7---|-7---7-7-7-5-----|
Eb|-0-0---000-0---0-|-0-0---000-0---0-|-0---0-0---0---0-|---00--------7-5-|

Gb|-----------------|-----------------|-----------------|-----------------|
Db|-----4-------4---|-----4-------4---|-----4-------4---|-----------------|
Ab|-----------------|-----------------|-----------------|-----------------|
Eb|-2-2---222-2---2-|-2-2---222-2---2-|-2-2---222-2---2-|-2-2-5-5-5-5-7-0-|

Gb|-----------------|-----------------|-----------------|-----------------|
Db|-----4---4---4---|-----4-444---4---|-----4-444---4---|-----------------|
Ab|-----------------|-----------------|-----------------|-----------------|
Eb|-2-2---22--2---2-|-2-2-------2---2-|-2-2-------2---2-|-2-2-5-5-5-5-7-0-|

Gb|-----------------|-----------------|-----------------|-----------------|
Db|-----6---6-------|-----6---6-------|-----6---6-------|-----------------|
Ab|-----------------|-----------------|-----------------|-----------------|
Eb|-4-4---44--4-4-4-|-4-4---44--4-4-4-|-4-4---44--4-4-44|-4-447---7---9-7\|

Gb|-----------------|-----------------|-----------------|-----------------|
Db|-----6---6-------|-----6---6-------|-----6---6-------|-----------------|
Ab|-----------------|-----------------|-----------------|-----------------|
Eb|-4-4---44--4-4-4-|-4-4---44--4-4-4-|-4-4---44--4-4-4-|-7---7---7---7\--|

Gb|-----------------|-----------------|-----------------|-----------------|
Db|-----------------|-----------------|-----------------|-----------------|
Ab|-----------------|-----------------|-----------------|-----------------|
Eb|-0---------------|(0)--------------|(0)--------------|(0)--------------|

Gb|-----------------|-----------------|-----------------|-----------------|
Db|-----------------|-----------------|-----------------|-----------------|
Ab|-----------------|-----------------|-----------------|-----------------|
Eb|(0)--------------|(0)--------------|(0)--------------|(0)----------12\-|

Riff 2a
Gb|-----------------|-----------------|-----------------|-----------------|
Db|-----------------|-----------------|-----------------|-----------------|
Ab|-----------------|-----------------|-----------------|-----------------|
Eb|-0-0-0-0-0-0-0-00|-0-0-0-0-0-0-0-00|-0-0-0-0-0-0-0-0-|---0-3-------5-3-|

Gb|-----------------|-----------------|-----------------|-----------------|
Db|-----------------|-----------------|-----------------|-----------------|
Ab|-----------------|-----------------|-----------------|-----------------|
Eb|-0-0-0-0-0-0-0-00|-0-0-0-0-0-0-0-00|-0-0-0-0-0-0-0-0-|---0-3---3-3-5-3-|

Gb|-----------------|-----------------|-----------------|-----------------|
Db|-----------------|-----------------|-----------------|-----------------|
Ab|-----------------|-----------------|-----------------|-----------------|
Eb|-5-5-5-5-5-5-5-33|-5-5-5-555-5-5-33|-5-5-5-5-5-5-0-5-|---5-3-------3\--|

Gb|-----------------|-----------------|-----------------|-----------------|
Db|-----------------|-----------------|-----------------|-----------------|
Ab|-----------------|-----------------|-----------------|-5h7---------7-7-|
Eb|-0-------------0-|-0-------------0-|-0-------------0-|---0-------0-----|

Gb|-----------------|-----------------|-----------------|-----------------|
Db|-----------------|-----------------|---------4-------|---------3---3---|
Ab|-----------------|-----5-5---------|-----------------|-----------------|
Eb|-3-------------3-|-5/7---------7---|-2---2-2-----2---|-1---1-1---1---1-|

Gb|-----------------|-----------------|-----------------|-----------------|
Db|-----------------|-----------------|-----------------|-----------------|
Ab|-----------------|-----------------|-----------------|-----------------|
Eb|-0-0-0-0-0-0-0-0-|-0-0-0-0-0-0-0-0-|-7---7-7-7-7-7-00|-5-5-5-5-5---5-00|

Gb|-----------------|-----------------|-----------------|-----------------|
Db|-----------------|-----------------|-----------------|-----------------|
Ab|-----------------|-----------------|-----------------|-----------------|
Eb|-3-3-3-3-3-3-2-1-|-0000300000300030|-0000300000300030|-7---7-7-7-7-7-00|

Gb|-----------------|-----------------|-----------------|-----------------|
Db|-----------------|-----------------|-----------------|-----------------|
Ab|-----------------|-----------------|-----------------|-----------------|
Eb|-5-5-5-5-5---5-00|-3-3-3-3-3-3-2-1-|-0000300000300030|-0000300000300030|

Gb|-----------------|-----------------|-----------------|-----------------|
Db|-----------------|-----------------|-----------------|-----------------|
Ab|-----------------|-----------------|-----------------|-----------------|
Eb|-7---7-7-7-7-7-00|-5-5-5-5-5---5-00|-3-3-3-3-3-3-2-1-|-0000300000300030|

Gb|-----------------|-----------------|-----------------||
Db|-----------------|-----------------|-----------------||
Ab|-----------------|-----------------|-----------------||
Eb|-0000300000300030|-0000300000300030|-0000300000300030||

Ending
Gb|-----------------|-----------------|-----------------|-----------------|
Db|-----------------|-----------------|-----------------|-----------------|
Ab|-----------------|-----------------|-----------------|-----------------|
Eb|-7---7-7-7-7-7-00|-5-5-5-5-5---5-00|-3-3-3-3-3-3-2-1-|-0-0-0-0-0-0-0-0-|

Gb|-----------------|-----------------|-----------------|-----------------|
Db|-----------------|-----------------|-----------------|-----------------|
Ab|-----------------|-----------------|-----------------|-----------------|
Eb|-7---7-7-7-7-7-00|-5-5-5-5-5---5-00|-3-3-3-3-3-3-2-1-|-0-0-0-0-0-0-0-0-|

Gb|-----------------|-----------------|-----------------|-----------------|
Db|-----------------|-----------------|-----------------|-----------------|
Ab|-----------------|-----------------|-----------------|-----------------|
Eb|-7---7-7-7-7-7-00|-5-5-5-5-5---5-00|-3-3-3-3-3-3-2-1-|-0-0-0-0-0-0-0-0-|

Gb|-----------------|-----------------|-----------------|-----------------|
Db|-----------------|-----------------|-----------------|-----------------|
Ab|-----------------|-----------------|-----------------|-----------------|
Eb|-7---7-7-7-7-7-00|-5-5-5-5-5---5-00|-3-3-3-3-3-3-2-1-|-0-3-2-1-0-3-2-1-|

Gb|-----------------|-----------------|-----------------|-----------------|
Db|-----------------|-----------------|-----------------|-----------------|
Ab|---------R-------|-----------------|-----------------|-----------------|
Eb|-0-3-2-1---------|-----------------|-----------------|-------------0-0-|

Gb|-----------------||
Db|-----------------||
Ab|---------------R-||
Eb|-0-3---------0---||

questions/comments - fraberjam@hotmail.com



Listen to this song at Rdio  
Get this song at amazon.com     Ringtones Ringtones  eMusic  

Learn to play: Songwriting, Piano, Harmonica, Guitar

Related Metallica Bass Tabs

Seek And Destroy bass
Harvester Of Sorrow bass
Low's Man Lyric bass
Live Shit bass
Orion bass
For Whom The Bell Tolls Bass Tab (jason Newsteds Way Live) bass
Am I Evil bass
Until It Sleeps bass
My Friend Of Misery (solo) bass
Free Speech For The Dumb (5-string) bass
Helpless bass
The Shortest Straw bass
Nothing else matters s m bass
Enter Sandman(100% Correct And Improved) bass
Jason Newstaed And Kirk Hammett Solo bass
Bass Guitar Doodle bass
Merciful Fate bass
Thorn Within bass
Pulling Teeth bass
The Call Of Ktulu bass


Guitar Tabs




All tabs are property and copyright of their owners. All tabs provided for educational purposes only. Privacy Policy, DMCA, Muzikum