Metallica

A National Acrobat Bass Tabs



More from Metallica

Metallica Tabs
Metallica Chords
Metallica Bass
Metallica Lyrics



BASS
METALLICA
A NATIONAL ACROBAT
WRITTEN BY BLACK SABBATH
ALBUM-GARAGE INC

TABBED BY BILLY MILNE
EADG

METALLICA PLAY THIS IN THE MIDDLE OF SABRA CADABRA.

MAIN RIFF
G-----------------------------------------------------------------
D-----------------------------------4-H-6-4-----------------------
A-2-4-4-4--2-4-2-4--7-6---2-4-4-4-4---------2------2-4-2----------
E------------------------------------------------4-------4--------

RIFF
G-----------------------------------
D-----------------------------------
A-4--4~~~~~~7--7~~~~~2--2~~~--------
E---------------------------2--2----

RIFF
G-----------------------------------
D-----------------------------------
A-----------------------------------
E-5--5~~~~~4--4~~~~0--0~~~~2--2-----

RIFF
G-----------------------------------
D------------------2----------------
A-2-4------2-4-2-4---4-2---2-4------
E--------4---------------4----------

RIFF
G-4-H-6--4-------------
D-----------4--2-------
A----------------------
E----------------------

RIFF
G-4-H-6--4------------------------------------
D-----------4--2--6-6-6-6-6-6-6-6-6-6-6-6-----
A---------------------------------------------
E---------------------------------------------

THEN IT GOES STRAIGHT BACK TO SABRA CADABRA.



Related Metallica Bass Tabs

The Wait bass
Until It Sleeps bass
For Whom The Bells Toll bass
King Of Nothing bass
Loverman bass
Enter Sandman (perfect) bass
Master Of Puppets (album) bass
Aint My Bitch bass
Nothing Else Matters bass
St Anger bass
Green Hell bass
Black (album) bass
Killing Time bass
Welcome Home bass
Reef bass
For Whom The Bell Tolls bass
Master Of Puppets (entire Record!!!!) bass
So F***ing What(corrected) bass
Black Night bass
Die Die My Darlying bass


Guitar Tabs




All tabs are property and copyright of their owners. All tabs provided for educational purposes only. Privacy Policy, DMCA, Links