Metallica

89' Seattle Bass Solo Bass Tabs



More from Metallica

Metallica Tabs
Metallica Chords
Metallica Bass
Metallica Lyrics




Artist: Metallica
Song: Seattle Bass Solo
Tabbed by GRiMM

1
|---9--9----9--9--9-----|
|----9--9----9--9--9----|
|--7--7--7-6--6--6------|
|--------------------8--|

2
|-----------------------------------------|
|--------7-7-----7-7-----7-7-----7--------|
|-----------------------------------------|
|--9-7-5-----5-5-----5-5-----5-5---5-6-7--|

3
|-------------------|
|--9---9---9---9----|
|---9---9---9---9---|
|----7---7---7---7--|

4
|---------------------------|
|---------------------------|
|------6---7---9---7---6-6--|
|--7-7---7---7---7---7------|

5
|-----8-9-11-9-8-----9---|
|----9-9-9--9-9-9---9-9--|
|---7--------------7-----|
|--7--------------0------|

heres the order
1,2,3,1,2,4,1,2,5

This is an alright solo, just when i had
my doubts about jason, but he's no Cliff Burton



Related Metallica Bass Tabs

Live Shit bass
Fixxer bass
Bass/guitar Doodle In Paris bass
From Whom The Bells bass
Bass Guitar Doodle bass
Linus And Lucy bass
We Did It Again bass
Trapped Under Ice bass
Live Shit Binge And Purge Mexico City Disc 1 bass
Fade To Black bass
Cunning Stunts Bass Solo bass
Blues Jam bass
Black Night bass
Master Of Puppets( Easier 2 Play) bass
Sanitarium bass
The Black Album bass
Saint Anger bass
London Dungeon bass
Enter Sandman Main Riff bass
God Of Thunder bass


Guitar Tabs




All tabs are property and copyright of their owners. All tabs provided for educational purposes only. Privacy Policy, DMCA, Links