Led Zeppelin

Hey Lady Tabs



More from Led Zeppelin

Led Zeppelin Tabs
Led Zeppelin Chords
Led Zeppelin Bass
Led Zeppelin Lyrics




~ vibrato
h hammer on
p pull off
/ slide up
slide down

thats all you need to know


you\'ll have to listen to the song to find out the rythym




BEGINNING
G D G
|-----------------3-3-3-3--------------------2-2-2------------3-3-3-3--|
|-----------------0-0-0-0--------------------3-3-3------------0-0-0-0--|
|0h2p0--------0--0-0-0-0--0h2p0---0-4p2p0--2-2-2-0h2p0----0-0-0-0-0--|
|----------4-0----0-0-0-0--------4---------0-0-0-0-------4-0-0-0-0-0--|
|-----------------2-2-2-2-------------------------------------2-2-2-2--|
|-----------------3-3-3-3-------------------------------------3-3-3-3--|



D
|------------------2-2---------------|
|------------------3-3---------------|
|--0h2p0---0-4p2p0-2-2---------------|
|--------4---------0-0------2--0-2-0-|
|-----------------------0-2---0------|
|------------------------------------|



G D
|--3-3-3-3------------------2-2-2------------|
|--2-2-0-0------------------3-3-3------------|
|--0-0-0-0--0h2p0---0-4p2p0-2-2-2--0h2p0-----|
|-0-0-0-0--------4---------0-0-0--------4-0-|
|--2-2-2-2-----------------------------------|
|--3-3-3-3-----------------------------------|




second time dont play this
|--------------------------------------------------------|
|---3-3-3---3-3-3---3-3-3-3-3-3-3-3/5-5-5-5-5-5-5-5------|
|---0-0-0---0-0-0---0-0-0-0-0-0-0-0/0-0-0-0-0-0-0-0------|
|---0-0-0---0-0-0---0-0-0-0-0-0-0-0/0-0-0-0-0-0-0-0------|
|-3-3-3-3-2-2-2-2-1-1-1-1-1-1-1-1-1/3-3-3-3-3-3-3-3------|
|--------------------------------------------------------|





Repeat the beginning and dont play the part above
play this
|
|

|--------------------------2-2-0---------------2-2-0-------------------2-2-2-2-2-----------|
|----3-3-3-----------------3-3-3---------------3-3-3-------------------3-3-3-3-3-----------|
|----0-0-0-----------------2-2-2---------------2-2-2-------------------2-2-2-2-2-----------|
|----0-0-0-------------2p0-0-0-0-----------2p0-0-0-0--------------2p0--0-0-0-0-0-----------|
|--3-3-3-3-2-------0h3-----------------0h3--------------------0h3--------------------------|
|------------3-3-3---------------3-3-3---------------3-3-3---------------------------------|





|-------------3-3-3-3------------------2-2-2--------------|
|-------------0-0-0-0------------------3-3-3-0h2p0-----0--|
|-0h2p0-----0-0-0-0-0--0h2p0---0-4p2p0-2-2-2-------4-0----|
|-------4-0---0-0-0-0--------4---------0-0-0--------------|
|-------------2-2-2-2-------------------------------------|
|-------------3-3-3-3-------------------------------------|




|--3-3-3--7-7-7--10-10-10-10-10-10--------------3-3-3-3-|
|--0-0-0--7-7-7--10-10-10-10-10-10--------------0-0-0-0-|
|--0-0-0--8-8-8--11-11-11-11-11-11--0h2p0-----0-0-0-0-0-|
|--0-0-0--9-9-9--12-12-12-12-12-12--------4-0---0-0-0-0-|
|--2-2-2--9-9-9--12-12-12-12-12-12--------------2-2-2-2-|
|--3-3-3--7-7-7--10-10-10-10-10-10--------------3-3-3-3-|




|--------------------2-2-2-----------------------------------2-2-0--|
|--------------------3-3-3-------------3-3-3-----------------3-3-3--|
|--0h2p0---0-4p2p0---2-2-2-0h2p0-------0-0-0-----------------2-2-2--|
|--------4---------0-0-0-0-------4-0---0-0-0-------------2p0-0-0-0--|
|------------------------------------3-3-3-3-2-------0h3------------|
|----------------------------------------------3-3-3----------------|




|----------------2-2-0-----------------|
|----------------3-3-3-----------------|
|----------------2-2-2-----------------|
|------------2p0-0-0-0----------2p0----|
|--------0h3----------------0h3--------|
|--3-3-3---------------3-3-3-----------|



BEGGINING OF CYCLE

|-9--9--9---7-7-7-7-7-7-7-7--9--9--9---7-7-7-7-7-7-7-7--|
|-11-11-11--9-9-9-9-9-9-9-9--11-11-11--9-9-9-9-9-9-9-9--|
|-9--9--9---7-7-7-7-7-7-7-7--9--9--9---7-7-7-7-7-7-7-7--|
|-11-11-11--9-9-9-9-9-9-9-9--11-11-11--9-9-9-9-9-9-9-9--|
|-9--9--9---7-7-7-7-7-7-7-7--9--9--9---7-7-7-7-7-7-7-7--|
|-9--9--9---7-7-7-7-7-7-7-7--9--9--9---7-7-7-7-7-7-7-7--|





9--9--9---7-7-7-7-7-7-7-7---9--9--9---7-7-7-7------|
11-11-11--9-9-9-9-9-9-9-9---11-11-11--9-9-9-9------|
9--9--9---7-7-7-7-7-7-7-7---9--9--9---7-7-7-7------|
11-11-11--9-9-9-9-9-9-9-9---11-11-11--9-9-9-9------|
9--9--9---7-7-7-7-7-7-7-7---9--9--9---7-7-7-7------|
9--9--9---7-7-7-7-7-7-7-7---9--9--9---7-7-7-7------|



Last Part of Cycle

|---------------------------------------|
|---------------------------------------|
|---------------------------------------|
|-----------5-5-5-5--7-7-7-7-7--5-5-5-5-|
|--2-5------5-5-5-5--7-7-7-7-7--5-5-5-5-|
|------3-5--3-3-3-3--5-5-5-5-5--3-3-3-3-|

repeat this first part too times, then start the cycle over

do this cycle 3 times and then the solo comes




play these chords during the solo


|------------------------------|
|------------------------------|
|---------7-7-7---7------------| ^
|--5-5-5--7-7-7---7--7---2-----| |
|--5-5-5--5-5-5---5--7---2-----| |
|--3-3-3-------------5---0-----| |
when the solos dont you go back to the cycle



Related Led Zeppelin Tabs

Ramble On tabs
Carouselambra tabs
Swan Song tabs
Hey Lady tabs
Stairway To Heaven (the Best Tab Ever) tabs
The Rover tabs
Dazed And Confused tabs
Im Gonna Crawl tabs
Trampled Underfoot Bass tabs
Since I tabs
South Bound Saurez tabs
Were Gonna Groove tabs
Black Mountain Side tabs
What Is And Should Never be tabs
Thats The Way tabs
Livin\' Lovin\' Woman tabs
Black Dog (live Version) tabs
Lz Time Of Dying tabs
The Girl I Love She Got Long Black Wavy Hair tabs
Ten Years Gone tabs


Guitar Tabs




All tabs are property and copyright of their owners. All tabs provided for educational purposes only. Privacy Policy, DMCA, Links