Jupiter Coyote

Crazy Women Tabs



More from Jupiter Coyote

Jupiter Coyote Tabs

Crazy Women 
Ryan Perrott-blindleaf22@aol.com
     
E------10--------10------------8------------8----------------------3---
B------10--------10------------8------------8----------------------3---
G-------0--0------0---0--------0---0--------0-----0----------0-----2---
D-------9-----9---0------7-----7------7-----0--------0----------0--0---
A--10--10---------9---------8--8------------7-----------0--2-----------
E----------------10----------------------8--8--3-----------------------

E------3-----------------1-----------------0---------------------------3-----3--
B---------3--------------1--1--------------1------------------------------3-----
G---------0--------0-----2-----0-----0-----0--0---------------0-----------2-----
D------0--------0-----0--3--------3-----0--2-----0--------0------0--------0--0--
A--2------2--------------------------------3--------2--3------------0-----------
E------------3----------------------------------------------3-------------------

E-------------------1-----------------0---------------------------------3---3--------
B--3----------------1--1--------------1-----------------------------------3---3------
G--0----------0-----2-----0-----0-----0--0--------------0---------0-------2---0------
D---------0------0--3--------3-----0--2-----0-------0------0---------0----0-0------0-
A--2----------------------------------3--------2-3------------0-2-------------2------
E------3----------------------------------------------3--------------------------3---

E-----------1----------------0-------------------------------------
B-----------1--1-------------1-------------------------------------
G--0--------2-----0----0-----0--0----------------------------------
D-----0--3--3--------3----0--2-----0--------0----------------------
A----------------------------3--------2--3-------------------------
E------------------------------------------------------------------

Related Jupiter Coyote Tabs

By And By tabs
Becky tabs
Ship In The Bottle tabs
Crazy Women tabs
Ballad Of Lucy Edenfield tabs


Guitar Tabs




All tabs are property and copyright of their owners. All tabs provided for educational purposes only. Privacy Policy, DMCA, Links