Guns N Roses

Sweet Child Of Mine Tabs



More from Guns N Roses

Guns N Roses Tabs
Guns N Roses Chords
Guns N Roses Bass
Guns N Roses Lyrics

tabs-database.com[http://www.tabs-database.com.com/]
Intro: sweet child of mine



This is my first tab and I think its pretty good so please rate



D C

e:|--------------15----14-----|--------------15----14-----|

B:|-----15--------------------|-----15--------------------|

G:|:-------14-12----14----14-:|:-------14-12----14----14-:|

D:|--12-----------------------|--14-----------------------|

A:|---------------------------|---------------------------|

E:|---------------------------|---------------------------|



G D

e:|--------------15----14-----|--------------15----14-----|

B:|-----15--------------------|-----15--------------------|

G:|:-12----14-12----14----14-:|:-------14-12----14----14-:|

D:|---------------------------|--12-----------------------|

A:|---------------------------|---------------------------|

E:|---------------------------|---------------------------|





D C

e:|--------------15----14-----|--------------15----14-----|

B:|-----15--------------------|-----15--------------------|

G:|:-------14-12----14----14-:|:-------14-12----14----14-:|

D:|--12-----------------------|--14-----------------------|

A:|---------------------------|---------------------------|

E:|---------------------------|---------------------------|





G D

e:|--------------15----14-----|--------------15----14-----|

B:|-----15--------------------|-----15--------------------|

G:|:-12----14-12----14----14-:|:-------14-12----14----14-:|

D:|---------------------------|--12-----------------------|

A:|---------------------------|---------------------------|

E:|---------------------------|---------------------------|





Chorus:



A C

e:|---------------------------|--------------12----10-----|

B:|--14-14-------15----14-----|--13-13--------------------|

G:|--------14-------14----14--|--------12-10----12----12--|

D:|-----------14--------------|---------------------------|

A:|---------------------------|---------------------------|

E:|---------------------------|---------------------------|





D D

e:|--------------15----14-----|--------------15---14-----|

B:|-----15--------------------|-----15-------------------|

G:|--------14-12----14----14--|--------14-12---14----14--|

D:|--12-----------------------|--12----------------------|

A:|---------------------------|--------------------------|

E:|---------------------------|--------------------------|





A C

e:|---------------------------|--------------12----10-----|

B:|--14-14-------15----14-----|--13-13--------------------|

G:|--------14-------14----14--|--------12-10----12----12--|

D:|-----------14--------------|---------------------------|

A:|---------------------------|---------------------------|

E:|---------------------------|---------------------------|





D D

e:|---------------------------|---------------------------|

B:|--------15-----------------|---------------------------|

G:|--12s14--------------------|---------------------------|

D:|---------------------------|---------------------------|

A:|---------------------------|---------------------------|

E:|---------------------------|---------------------------|



1 st solo



|-17^--hold----15--14--h15p14-----------15--14--h15p14-----------12--14-|

|-----------------------------17-----------------------17-16------------|

|-----------------------------------------------------------------------|

|-----------------------------------------------------------------------|

|-----------------------------------------------------------------------|

|-----------------------------------------------------------------------|





|------------------------------

|--15^--12------------------

|----------14^--12--11h12-

|------------------------------

|------------------------------

|------------------------------







A C

e:|---------------------------|--------------12----10-----|

B:|--14-14-------15----14-----|--13-13--------------------|

G:|--------14-------14----14--|--------12-10----12----12--|

D:|-----------14--------------|---------------------------|

A:|---------------------------|---------------------------|

E:|---------------------------|---------------------------|





D D

e:|--------------15----14-----|--------------15---14-----|

B:|-----15--------------------|-----15-------------------|

G:|--------14-12----14----14--|--------14-12---14----14--|

D:|--12-----------------------|--12----------------------|

A:|---------------------------|--------------------------|

E:|---------------------------|--------------------------|





A C

e:|---------------------------|--------------12----10-----|

B:|--14-14-------15----14-----|--13-13--------------------|

G:|--------14-------14----14--|--------12-10----12----12--|

D:|-----------14--------------|---------------------------|

A:|---------------------------|---------------------------|

E:|---------------------------|---------------------------|





D D

e:|---------------------------|---------------------------|

B:|--------15-----------------|---------------------------|

G:|--12s14--------------------|---------------------------|

D:|---------------------------|---------------------------|

A:|---------------------------|---------------------------|

E:|---------------------------|---------------------------|







D C

e:|--------------15----14-----|--------------15----14-----|

B:|-----15--------------------|-----15--------------------|

G:|:-------14-12----14----14-:|:-------14-12----14----14-:|

D:|--12-----------------------|--14-----------------------|

A:|---------------------------|---------------------------|

E:|---------------------------|---------------------------|



G D

e:|--------------15----14-----|--------------15----14-----|

B:|-----15--------------------|-----15--------------------|

G:|:-12----14-12----14----14-:|:-------14-12----14----14-:|

D:|---------------------------|--12-----------------------|

A:|---------------------------|---------------------------|

E:|---------------------------|---------------------------|





D C

e:|--------------15----14-----|--------------15----14-----|

B:|-----15--------------------|-----15--------------------|

G:|:-------14-12----14----14-:|:-------14-12----14----14-:|

D:|--12-----------------------|--14-----------------------|

A:|---------------------------|---------------------------|

E:|---------------------------|---------------------------|





G D

e:|--------------15----14-----|--------------15----14-----|

B:|-----15--------------------|-----15--------------------|

G:|:-12----14-12----14----14-:|:-------14-12----14----14-:|

D:|---------------------------|--12-----------------------|

A:|---------------------------|---------------------------|

E:|---------------------------|----------------------



2 nd solo



-----------------------------------------------|

--------------------13-12-------h13p1210------|

---------------11-12-14-----------------------|

14-----14---------------------------------|

-----------------------------------------|

-----------------------------------------|







|---------------------------------------------15^-----------------------|

|--13^-----13-----12--12-(12)-------12^----------------7^^--------------|

|-----------------------------------------14-----------------9--9-------|

|-----------------------------------------------------------------------|

|-----------------------------------------------------------------------|

|-----------------------------------------------------------------------|



|-----------------------------------------------------------------------|

|-----7^----------------------------------------------------------------|

|----------9--9-----8^----8/11---------11^---9-----------------9--------|

|-----------------------------------------------9^---7---9--------------|

|-----------------------------------------------------------------------|

|-----------------------------------------------------------------------|



|-----------------------------------------------------------------------|

|--------7h8--p7---------------------------------------------7^---7-10^-|

|----------------------9------8^-----8------/11-----9^--8-9-----9-------|

|-----------------------------------------------------------------------|

|-----------------------------------------------------------------------|

|-----------------------------------------------------------------------|





D C

e:|--------------15----14-----|--------------15----14-----|

B:|-----15--------------------|-----15--------------------|

G:|:-------14-12----14----14-:|:-------14-12----14----14-:|

D:|--12-----------------------|--14-----------------------|

A:|---------------------------|---------------------------|

E:|---------------------------|---------------------------|



G D

e:|--------------15----14-----|--------------15----14-----|

B:|-----15--------------------|-----15--------------------|

G:|:-12----14-12----14----14-:|:-------14-12----14----14-:|

D:|---------------------------|--12-----------------------|

A:|---------------------------|---------------------------|

E:|---------------------------|---------------------------|





D C

e:|--------------15----14-----|--------------15----14-----|

B:|-----15--------------------|-----15--------------------|

G:|:-------14-12----14----14-:|:-------14-12----14----14-:|

D:|--12-----------------------|--14-----------------------|

A:|---------------------------|---------------------------|

E:|---------------------------|---------------------------|





G D

e:|--------------15----14-----|--------------15----14-----|

B:|-----15--------------------|-----15--------------------|

G:|:-12----14-12----14----14-:|:-------14-12----14----14-:|

D:|---------------------------|--12-----------------------|

A:|---------------------------|---------------------------|

E:|---------------------------|---------------------------|



3 rd solo

|-7-8p7-11p7-8-11-12/14-11-12--14/15-12-14-15p14-12----14p11-12h14p12---|

|---------------------------------------------------15----------------15|

|-----------------------------------------------------------------------|

|-----------------------------------------------------------------------|

|-----------------------------------------------------------------------|

|-----------------------------------------------------------------------|

w/wah wah

|-17--------------------------------------------------------------------|

|----15^---15^---15^---15^---15^-p12-----15^----15^--------15^-p12------|

|------------------------------------14----------------------------14---|

|-----------------------------------------------------------------------|

|-----------------------------------------------------------------------|

|-----------------------------------------------------------------------|



|----------------------------------15-----------------------------------|

|--17^---17^--------17^----17^----------17^---------17^-p15--15h17------|

|-------------------17^-------------------------------------------------|

|-----------------------------------------------------------------------|

|-----------------------------------------------------------------------|

|-----------------------------------------------------------------------|



|-----------12----------------------------------------------------------|

|-15^------------15---12------------------------------------------------|

|---------------------------14^-p12-14---12-14----12--14^----12--14--12-|

|-----------------------------------------------------------------------|

|-----------------------------------------------------------------------|

|-----------------------------------------------------------------------|



|----15-------------15-----15-----15------------------------------------|

|----15-------15----15-----15-------15----------------------------------|

|-14^--14--12-14^-----14^----14^------14^-p12----14p12--x-x----12^------|

|---------------------------------------------14--------x-x-------------|

|-----------------------------------------------------------------------|

|-----------------------------------------------------------------------|



|-----------------------------------------------------------------------|

|-----------------------------------------------------------------------|

|-----------------12h14p12----12^--------------------12h14p12-----12-12-|

|-14p12-14----x-x----------14--------14p12-14----x-x----------14--------|

|-----------------------------------------------------------------------|

|-----------------------------------------------------------------------|



|----------------------------------------------12-12-------15-15p12--15-|

|-------------------12-12-------15-15p12-------------15p12--------------|

|-------14-14p12-14-------14p12-----------------------------------------|

|-14p12-----------------------------------------------------------------|

|-----------------------------------------------------------------------|

|-----------------------------------------------------------------------|



|-14----12h15p12---------12-----------12-----------12-----------12------|

|----15----------15--15^----15p12--------15p12-15^----15p12--------15p12|

|----------------------------------14^-----------------------14^--------|

|-----------------------------------------------------------------------|

|-----------------------------------------------------------------------|

|-----------------------------------------------------------------------|



|------12-----------12-----------12--------------12-------15^-----------|

|--15^----15p12--------15p12-15^----15p12-----12----15p12---------------|

|---------------14^-----------------------14^---------------------------|

|-----------------------------------------------------------------------|

|-----------------------------------------------------------------------|

|-----------------------------------------------------------------------|



|--------------------15------12h15p12----12------12---------------------|

|-------------------------------------15-----15^-----15p12--------------|

|-----------------------------------------------------------14^-p12-14^-|

|-----------------------------------------------------------------------|

|-----------------------------------------------------------------------|

|-----------------------------------------------------------------------|



|---------------------------------------------------|

|-------15------------------------------------------|

|----------14^-p12-14^----14p12--------------12-----|

|----------------------14-------14------------------|

|---------------------------------------------------|

|---------------------------------------------------|



ENDING :

|--------------------------------------------------------------------|

|-----------------------------------------------------------------9--|

|---------------------------------------------------------------9----|

|--14-/-9----9/5---------------------------------------------9-------|

|---------------------10-/-7-/-2---------------------------7---------|

|-------------------------------------5-/-3hb---3-/-0----------------|







This song took me over 3 days to tabs so, I want to hear your comments

Added by tabs-database.com.com and our distinguished partners

Related Guns N Roses Tabs

Live And Let Die (greatest Hits) tabs
Big Bad Billy tabs
Chi tabs
Look At Your Game Girl tabs
Use Your Illusion 1 Album tabs
Estranged tabs
Sweet Child O Mine 1000% Perfect tabs
Anything Goes tabs
Paradise City tabs
One In A Million tabs
Move To The City tabs
Jumping Jack Flash tabs
G N' R Lies (album) tabs
Double Talking Jive tabs
Down On The Farm tabs
My Michelle tabs
Its Alright tabs
Buick Makane tabs
The Godfather Theme tabs
You Cant Put Your Arms Around A Memory tabs


Guitar Tabs




All tabs are property and copyright of their owners. All tabs provided for educational purposes only. Privacy Policy, DMCA, Links