Dethklok

Go Into The Water Tabs



More from Dethklok

Dethklok Tabs
Dethklok Chords
Dethklok Lyrics

Go Into the Water

Dethklok

(Most of the tabs on UG donít have the lead part of the verses, so Iím gonna put it in this one)



.=palm mute b=half bend fb=full bend ~=vibrato



Verse 1a

C.|-----------------------------------------|

G.|-----------------------------------------|

Eb|-----------------------------------------|

Bb|-2---------2---------2---------2---------|

F.|-2---------2---------2---------2---------|

C.|-0---0-0-0-0---0-0-0-0---0-0-0-0---0-0-0-|

|| . . . . . . . . . . . .

C.|-----------------------------------------|

G.|-5---------5---------5---------5---------|

Eb|-4---------4---------4---------4---------|

Bb|-2---------2---------2---------2---------|

F.|-----------------------------------------|

C.|-----0-0-0-----0-0-0-----0-0-0-----0-0-0-|

. . . . . . . . . . . .



C.|-----------------------------------------|

G.|-----------------------------------------|

Eb|-----------------------------------------|

Bb|-2---------2---------2---------2---------|

F.|-2---------2---------2---------2---------|

C.|-3---3-3-3-3---3-3-3-3---3-3-3-3---3-3-3-|

|| . . . . . . . . . . . .

C.|-----------------------------------------|

G.|-5---------5---------5---------5---------|

Eb|-4---------4---------4---------4---------|

Bb|-5---------5---------5---------5---------|

F.|-----------------------------------------|

C.|-----3-3-3-----3-3-3-----3-3-3-----3-3-3-|

. . . . . . . . . . . .

Verse 1b

C.|-----------------------------------------|

G.|-----------------------------------------|

Eb|-----------------------------------------|

Bb|-2---------2---------2---------2---------|

F.|-4---------4---------3---------3---------|

C.|-5---5-5-5-5---5-5-5-5---5-5-5-5---5-5-5-|

|| . . . . . . . . . . . .

C.|-----------------------------------------|

G.|-2---------2---------2---------2---------|

Eb|-2---------2---------2---------2---------|

Bb|-2---------2---------2---------2---------|

F.|-0---0-0-0-0---0-0-0-0---0-0-0-0---0-0-0-|

C.|-----------------------------------------|

. . . . . . . . . . . .



C.|--------------------------------------|

G.|--------------------------------------|

Eb|--------------------------------------|

Bb|-2---------2---------2~~~3~~~4~~~5~~~-|

F.|-2---------2--------------------------|

C.|-4---4-4-4-4---4-4-4------------------|

|| . . . . . .

C.|--------------------------------------|

G.|-0--------0----------5~~~6~~~7~~~8~~~-|

Eb|-1--------1---------------------------|

Bb|-2--------2---------------------------|

F.|--------------------------------------|

C.|----4-4-4-----4-4-4-------------------|

. . . . . .

Verse 2a

C.|-----------------------------------------|

G.|-----------------------------------------|

Eb|-----------------------------------------|

Bb|-5---------5---------5---------5---------|

F.|-7---------7---------7---------7---------|

C.|-8---8-8-8-8---8-8-8-7---7-7-7-7---7-7-7-|

|| . . . . . . . . . . . .

C.|---------------------0---------0---------|

G.|-5---------5---------0---------0---------|

Eb|-5---------5---------0---------0---------|

Bb|-5---------5-------------2-2-2-----2-2-2-|

F.|-----3-3-3-----3-3-3---------------------|

C.|-----------------------------------------|

. . . . . . . . . . . .

Verse 2b

C.|-----------------------------------------|

G.|-----------------------------------------|

Eb|-----------------------------------------|

Bb|-7---------7---------7---------7---------|

F.|-7---------7---------7---------7---------|

C.|-9---9-9-9-9---9-9-9-9---9-9-9-9---9-9-9-|

|| . . . . . . . . . . . .

C.|-5---------5---------5---------5---------|

G.|-5---------5---------5---------5---------|

Eb|-6---------6---------6---------6---------|

Bb|-----------------------------------------|

F.|-----4-4-4-----4-4-4-----4-4-4-----4-4-4-|

C.|-----------------------------------------|

. . . . . . . . . . . .

Play Verse 2a

Play Verse 2b

Verse 3a

C.|-------------------------------------------|

G.|-------------------------------------------|

Eb|-------------------------------------------|

Bb|-8----------8----------7---------7---------|

F.|-8----------8----------8---------8---------|

C.|-10---10101010---1010108---8-8-8-8---8-8-8-|

|| . . . . . . . . . . . .

C.|-1----------1----------5---------5---------|

G.|-3----------3----------6---------6---------|

Eb|-3----------3----------5---------5---------|

Bb|------0-0-0------0-0-0---------------------|

F.|---------------------------3-3-3-----3-3-3-|

C.|-------------------------------------------|

. . . . . . . . . . . .

Verse 3b

C.|-----------------------------------------|

G.|-----------------------------------------|

Eb|-----------------------------------------|

Bb|-----------------------------------------|

F.|-7---------8---------7---------8---------|

C.|-5---5-5-5-5---5-5-5-5---5-5-5-5---5-5-5-|

|| . . . . . . . . . . . .

C.|-----------------------------------------|

G.|-10--------11--------10--------11--------|

Eb|-9---------10--------9---------10--------|

Bb|-7---7-7-7-7---7-7-7-7---7-7-7-7---7-7-7-|

F.|-----------------------------------------|

C.|-----------------------------------------|

. . . . . . . . . . . .

Play Verse 3a

Play Verse 3b 2x

Chorus a 2x

C.|---------------------------------------------|

G.|---------------------------------------------|

Eb|------------------------------------------5--|

Bb|--7---7-7---7-7---5---7---5---8---3---3---5--|

F.|--5---4-5---4-5---7---8---7---8---3---3---3--|

C.|------------------------------6---1---1------|



C.|---------------------------------------------|

G.|------------------------------------------8--|

Eb|--7---6-7---6-7---9---10--9---10--5---5---5--|

Bb|--7---7-7---7-7---5---7---5---8---3---3---5--|

F.|------------------------------8---3---3------|

C.|---------------------------------------------|



Chorus b 2x

C.|------------------------------------------------------|

G.|------------------------------------------------------|

Eb|--------------------------------------------------5---|

Bb|--7----7--7----7--7-5---7---5--8-----3----3-------5---|

F.|--5----4--5----4--5-7---8---7--8-----3----3-------3---|

C.|-------------------------------6-----1----1-----------|

||

C |-13---12-13---12-13-15-15b-15-17b---17---15fb-15-15---|

G |------------------------------------------------------|

D#|------------------------------------------------------|

A#|------------------------------------------------------|

F |------------------------------------------------------|

C |------------------------------------------------------|

||

C |-10---9--10---9--10-12-12b-12-12b---12---12b--12-12---|

G |------------------------------------------------------|

D#|------------------------------------------------------|

A#|------------------------------------------------------|

F |------------------------------------------------------|

C |------------------------------------------------------|



Play Verse 1a

Verse 1c

C.|-----------------------------------------|

G.|-----------------------------------------|

Eb|-----------------------------------------|

Bb|-2---------2---------2---------2---------|

F.|-4---------4---------3---------3---------|

C.|-5---5-5-5-5---5-5-5-5---5-5-5-5---5-5-5-|

|| . . . . . . . . . . . .

C.|-----------------------------------------|

G.|-2---------2---------2---------2---------|

Eb|-2---------2---------2---------2---------|

Bb|-2---------2---------2---------2---------|

F.|-0---0-0-0-0---0-0-0-0---0-0-0-0---0-0-0-|

C.|-----------------------------------------|

. . . . . . . . . . . .



C.|-------------------------------------|

G.|-------------------------------------|

Eb|-------------------------------------|

Bb|-2---------2---------3---4---5---6---|

F.|-2---------2---------3---4---5---6---|

C.|-4---4-4-4-4---4-4-4-5---6---7---8---|

|| . . . . . .

C.|---------------------1---2---3---4---|

G.|-0--------0----------1---2---3---4---|

Eb|-1--------1----------2---3---4---5---|

Bb|-2--------2--------------------------|

F.|-------------------------------------|

C.|----4-4-4-----4-4-4------------------|

. . . . . .

Play Verse 3a

Play Verse 3b 2x

Play Chorus a 4xAdded by tabs-database.com and our distinguished partners

Related Dethklok Tabs

Thunderhorse Bass tabs
Thunderhorse tabs
Better Metal Snake (intro) tabs
Deththeme tabs
Dethjingle tabs
Duncan Hills Coffee Jingle tabs
Fan Song tabs
Hatredy tabs
Go Forth And Die tabs
Banana Stickers tabs
Duncan Hills Coffee tabs
Awaken Mustakrakish tabs
Birthday Dethday tabs
Dethharmonic tabs
Crush My Battle Opponents Balls tabs
Duncan Hills Coffee Solo tabs
Explosioni tabs
Birthday Dethday Bass tabs
Awarden tabs
Briefcase Full Of Guts tabs


Guitar Tabs




All tabs are property and copyright of their owners. All tabs provided for educational purposes only. Privacy Policy, DMCA, Links