Chris Thile

Raining At Sunset intro Tabs



More from Chris Thile

Chris Thile Tabs
Chris Thile Lyrics

Song: Raining At Sunset
Album: Not All Who Wander Are Lost
Artist: Chris Thile
Tabbed by PJ White

E|-----0-------0---|-----0-------0---|-----0-------0---|-----0------------|
A|---0---0-0-0-----|---0---0-0-0-----|---0---0-0-0-----|---0---0-0-0-12---|
D|6/777777777777777|6/777777777777777|6/777777777777777|6/77777777777-----|
G|-----------------|-----------------|-----------------|------------------|
  1    2   3   4    1    2   3   4    1    2   3   4    1    2   3   4    


E|----------------------------------------------------------------------------------|
A|----------------------------------------------------------------------------------|
D|9/11-11-9-6-7---4/6---7-6-4-2-4--4-6-7-6-4-0--0-2-4-2-0-2---4-2-4/7---------------|
G|----------------------------------------------------------------------------------|
  
E|----------------------------------------------------------------------------------|
A|----------------------------------------------------------------------------------|
D|9/11-11-9-6-7---4/6---7-6-4-2-4--4-6-7-6-4-0--0-2-4-2-0-2---4-2-4/7---------------|
G|----------------------------------------------------------------------------------|

Related Chris Thile Tabs

Ready For Anything (mandolin) tabs
Raining At Sunset Lick tabs
Im Yours If You Want Me tabs
Big Sam Thompson (reel) tabs
Raining At Sunset tabs
Jessamyn's Reel tabs
Helping Hand tabs
Ready For Anything tabs
Waltz For Dewayne Pomeroy (mandolin) tabs
On Ice (outtro) tabs
Slime Rock tabs
On Ice intro tabs
Raining At Sunset intro tabs
Song For A Young Queen tabs
Sinai To Canaan - Part 1 tabs
Big Sam Thompson tabs
Club G.R.O.S.S. tabs
You Deserve Flowers tabs
Bridal Veil Falls tabs
Waltz For Dewayne Pomeroy tabs


Guitar Tabs




All tabs are property and copyright of their owners. All tabs provided for educational purposes only. Privacy Policy, DMCA, Links