Chris Thile

Big Sam Thompson Tabs



More from Chris Thile

Chris Thile Tabs
Chris Thile Lyrics

--0--3---3-h-5--3--3-h-5--7--7-h-8--7h8p7--5--3-p-0--0--
---------0---------0---------0-----------------------0--
--------------------------------------------------------
--------------------------------------------------------


-0----------0---------------------
----35--5-----353--0------0---0
---------0---------------5-h-7----
----------------------------------  Repeat 2x


---0--3--3-h-5--3--3-h-5---7--7-h-8---7h8p7--5--3p0-0--0
---------0---------0----------0---------------------0---
--------------------------------------------------------
--------------------------------------------------------

---------0--------------------0-----------------------
-35--5-----353--0-------0----0--0------------------
------0---------------5--5h7--------------------------
------------------------------------------------------

Thats it but I will have more later

Skip


Related Chris Thile Tabs

When Mandolins Dream tabs
Song For A Young Queen tabs
Im Yours If You Want Me tabs
Big Sam Thompson tabs
Club G.R.O.S.S. tabs
Raining At Sunset tabs
Waltz For Dewayne Pomeroy tabs
Jessamyn's Reel tabs
Ready For Anything tabs
Slime Rock tabs
Waltz For Dewayne Pomeroy (mandolin) tabs
Big Sam Thompson (reel) tabs
On Ice (outtro) tabs
Bridal Veil Falls tabs
Raining At Sunset Lick tabs
Helping Hand tabs
On Ice intro tabs
Raining At Sunset intro tabs
On Ice (mandolin Into Outro) tabs
Sinai To Canaan - Part 1 tabs


Guitar Tabs




All tabs are property and copyright of their owners. All tabs provided for educational purposes only. Privacy Policy, DMCA, Links