Aya Hirano

God Knows Tabs



More from Aya Hirano

Aya Hirano Tabs
Aya Hirano Lyrics

GOD KNOWS...

As recorded by ENOZ



Transcribed by VIP ENOZƒRƒs[ƒXƒŒ





Words by ”¨@ˆŸ‹M Music by _‘O@‹Ε

Arranged by _‘O@‹Ε



Gtr I (E A D G B E) - 'Untitled'

Gtr II (E A D G B E) - 'Untitled'



Q=154

4/4

Gtr I

Q E S S S S E E S S

|--|---------------------------------------|

|--|--5--------5----5-5-5--5-5----5----5-5-|

|--|--6--------6----6-6-6--6-6----6----6-6-|

|--|--6--------6----6-6-6--6-6----6----6-6-|

|--|--7--------7----7-7-7--7-7----7----7-7-|

|--|--5--------5----5-5-5--5-5----5----5-5-|

|

| Gtr II

| S S S S S S S S S S S S S S S S

|--|-16-0-0-14-0-0-12-0-0-14-0-0-12-0-14-0-|

|--|---------------------------------------|

|--|---------------------------------------|

|--|---------------------------------------|

|--|---------------------------------------|

|--|---------------------------------------|





Q E S S S S E E S S Q E S S S S E E S S

|---------------------------------------|--4--------4----4-4-4--4-4----4----4-4--|

|--7--------7----7-7-7--7-7----7----7-7-|--4--------4----4-4-4--4-4----4----4-4--|

|--8--------8----8-8-8--8-8----8----8-8-|--4--------4----4-4-4--4-4----4----4-4--|

|--9--------9----9-9-9--9-9----9----9-9-|--6--------6----6-6-6--6-6----6----6-6--|

|--9--------9----9-9-9--9-9----9----9-9-|--6--------6----6-6-6--6-6----6----6-6--|

|--7--------7----7-7-7--7-7----7----7-7-|--4--------4----4-4-4--4-4----4----4-4--|

|

| S S S S S S S S S S S S S S S S S S S S S S S S S S S S S S S S

|-16-0-0-14-0-0-12-0-0-14-0-0-12-0-14-0-|-16-0-0-14-0-0-12-0-0-14-0-0-12-0-11-0--|

|---------------------------------------|----------------------------------------|

|---------------------------------------|----------------------------------------|

|---------------------------------------|----------------------------------------|

|---------------------------------------|----------------------------------------|

|---------------------------------------|----------------------------------------|





Q E S S S S E E S S Q E S S S S E E S S

|--4-----4--4-4---4--4--4--4--4-4-|---------------------------------------|

|--5-----5--5-5---5--5--5--5--5-5-|--5--------5----5-5-5--5-5----5----5-5-|

|--6-----6--6-6---6--6--6--6--6-6-|--6--------6----6-6-6--6-6----6----6-6-|

|--6-----6--6-6---6--6--6--6--6-6-|--6--------6----6-6-6--6-6----6----6-6-|

|--4-----4--4-4---4--4--4--4--4-4-|--7--------7----7-7-7--7-7----7----7-7-|

|---------------------------------|--5--------5----5-5-5--5-5----5----5-5-|

|

| E E E E +E E E E S S S S S S S S S S S S S S S S

|-11-12-11----------------11-12---|-16-0-0-14-0-0-12-0-0-14-0-0-12-0-14-0-|

|----------12---(12)---14---------|---------------------------------------|

|---------------------------------|---------------------------------------|

|---------------------------------|---------------------------------------|

|---------------------------------|---------------------------------------|

|---------------------------------|---------------------------------------|





Q E S S S S E E S S

|-----------------------------------------|

|--7--------7----7-7-7--7-7----7----7-7---|

|--8--------8----8-8-8--8-8----8----8-8---|

|--9--------9----9-9-9--9-9----9----9-9---|

|--9--------9----9-9-9--9-9----9----9-9---|

|--7--------7----7-7-7--7-7----7----7-7---|

|

| S S S S S S S S S S S S S S S S

|-16-0-0-14-0-0-12-0-0-14-0-0-12-0-14-0---|

|-----------------------------------------|

|-----------------------------------------|

|-----------------------------------------|

|-----------------------------------------|

|-----------------------------------------|





Q Q E E E S S

|--4-----------------4-----------------4--------4--------4--------4----4----|

|--7-----------------7-----------------7--------7--------7--------7----7----|

|--6-----------------6-----------------6--------6--------6--------6----6----|

|--6-----------------6-----------------6--------6--------6--------6----6----|

|--4-----------------4-----------------4--------4--------4--------4----4----|

|---------------------------------------------------------------------------|

|

| |--3--| |--3--| |--3--| |--3--| |--3--| |--3--| |--3--| |---3---|

| S S S S S S S S S S S S S S S S S S S S S S S S

|-16-14-12-16-14-12-16-14-12-16-14-12-16-14-12-16-14-12-16-14-12-16-14---12-|

|---------------------------------------------------------------------------|

|---------------------------------------------------------------------------|

|---------------------------------------------------------------------------|

|---------------------------------------------------------------------------|

|---------------------------------------------------------------------------|





Q E S S S S E E S S

|--4-----------------4--------x----4-----x----4-----4--------4--------4----4-----|

|--5-----------------5--------x----5-----x----5-----5--------5--------5----5-----|

|--6-----------------6--------x----6-----x----6-----6--------6--------6----6-----|

|--6-----------------6--------x----6-----x----6-----6--------6--------6----6-----|

|--4-----------------4--------x----4-----x----4-----4--------4--------4----4-----|

|--------------------------------------------------------------------------------|

|

| |--3--| |--3--| |--3--| |---3---| |---3---| |--3--| |--3--| |---3---|

| S S S S S S S S S S S S S S S S S S S S S S S S

|-16-14-12----------16-14-12------------16-14---12-------------------------------|

|----------16-14-12----------16-14---14------------16-14-12-16-14-12-------------|

|--------------------------------------------------------------------16-14---13--|

|--------------------------------------------------------------------------------|

|--------------------------------------------------------------------------------|

|--------------------------------------------------------------------------------|





Q E S S S S E E S S

|---------------------------------------|

|--5--------5----5-5-5--5-5----5----5-5-|

|--6--------6----6-6-6--6-6----6----6-6-|

|--6--------6----6-6-6--6-6----6----6-6-|

|--7--------7----7-7-7--7-7----7----7-7-|

|--5--------5----5-5-5--5-5----5----5-5-|

|

| S S S S S S S S S S S S S S S S

|-16-0-0-14-0-0-12-0-0-14-0-0-12-0-14-0-|

|---------------------------------------|

|---------------------------------------|

|---------------------------------------|

|---------------------------------------|

|---------------------------------------|





Q E S S S S E E S S Q E Q E E S S

|---------------------------------------|--4--------4----4--------4----4----4-4-|

|--7--------7----7-7-7--7-7----7----7-7-|--4--------4----4--------4----4----4-4-|

|--8--------8----8-8-8--8-8----8----8-8-|--4--------4----4--------4----4----4-4-|

|--9--------9----9-9-9--9-9----9----9-9-|--6--------6----6--------6----6----6-6-|

|--9--------9----9-9-9--9-9----9----9-9-|--6--------6----6--------6----6----6-6-|

|--7--------7----7-7-7--7-7----7----7-7-|--4--------4----4--------4----4----4-4-|

|

| S S S S S S S S S S S S S S S S S S S S S S S S S S S S S S S S

|-16-0-0-14-0-0-12-0-0-14-0-0-12-0-14-0-|-19-0-0-19-0-0-19-0-0-16-0-0-14-0-16-0-|

|---------------------------------------|---------------------------------------|

|---------------------------------------|---------------------------------------|

|---------------------------------------|---------------------------------------|

|---------------------------------------|---------------------------------------|

|---------------------------------------|---------------------------------------|





Q E S S S S E E S S

|--4--------4----4-4-4--4-4----4----4-4-|

|--5--------5----5-5-5--5-5----5----5-5-|

|--6--------6----6-6-6--6-6----6----6-6-|

|--6--------6----6-6-6--6-6----6----6-6-|

|--4--------4----4-4-4--4-4----4----4-4-|

|---------------------------------------|

|

| S S S S S S S S S S S S S S S S

|-14-0-0-12-0-0-14-0-0-11-0-0-12-0-14-0-|

|---------------------------------------|

|---------------------------------------|

|---------------------------------------|

|---------------------------------------|

|---------------------------------------|





Q E S S S S E E S S Q E Q E E S S

|---------------------------------------|---------------------------------------|

|--5--------5----5-5-5--5-5----5----5-5-|--7--------7----7--------7----7----7-7-|

|--6--------6----6-6-6--6-6----6----6-6-|--8--------8----8--------8----8----8-8-|

|--6--------6----6-6-6--6-6----6----6-6-|--9--------9----9--------9----9----9-9-|

|--7--------7----7-7-7--7-7----7----7-7-|--9--------9----9--------9----9----9-9-|

|--5--------5----5-5-5--5-5----5----5-5-|--7--------7----7--------7----7----7-7-|

|

| S S S S S S S S S S S S S S S S S S S S S S S S S S S S S S S S

|-16-0-0-14-0-0-12-0-0-14-0-0-12-0-14-0-|-16-0-0-14-0-0-12-0-0-14-0-0-12-0-14-0-|

|---------------------------------------|---------------------------------------|

|---------------------------------------|---------------------------------------|

|---------------------------------------|---------------------------------------|

|---------------------------------------|---------------------------------------|

|---------------------------------------|---------------------------------------|





Q E Q E E S S

|----------------------------------------------------------------------------|

|--9-----------------9--------9-----------------9--------9--------9-----9----|

|-11----------------11-------11----------------11-------11-------11----11----|

|-11----------------11-------11----------------11-------11-------11----11----|

|----------------------------------------------------------------------------|

|----------------------------------------------------------------------------|

|

| |--3--| |--3--| |--3--| |--3--| |--3--| |--3--| |--3--| |---3----|

| S S S S S S S S S S S S S S S S S S S S S S S S

|-16-14-12-16-14-12-16-14-12-16-14-12-16-14-12-16-14-12-16-14-12-16-14----12-|

|----------------------------------------------------------------------------|

|----------------------------------------------------------------------------|

|----------------------------------------------------------------------------|

|----------------------------------------------------------------------------|

|----------------------------------------------------------------------------|





Q H.

|-----------------------|

|--9------9-------------|

|--9------9-------------|

|-11-----11-------------|

|-----------------------|

|-----------------------|

|

| Q E Q Q.

|-13b14r=13-------------|

|------------14--14-----|

|-----------------------|

|-----------------------|

|-----------------------|

|-----------------------|





W +W H +Q. E +E Q Q Q.

|-4--------|-(4)--------|--------------|----------------|

|-5--------|-(5)--------|-4----(4)---4-|-(4)-------4----|

|-6--------|-(6)--------|-4----(4)-----|-----4-----4----|

|-6--------|-(6)--------|-4----(4)-----|--------4--4----|

|-4--------|-(4)--------|-2----(2)-----|----------------|

|----------|------------|--------------|----------------|

|

| W W W W

|----------|------------|--------------|----------------|

|----------|------------|--------------|----------------|

|----------|------------|--------------|----------------|

|----------|------------|--------------|----------------|

|----------|------------|--------------|----------------|

|----------|------------|--------------|----------------|





W W W Q E E Q E E

|----------|----------|-0--------------|-----6-6----4-4-|

|-2--------|-4--------|-0--------------|-----7-7----4-4-|

|-2--------|-4--------|-1--------------|-----8-8----4-4-|

|-2--------|-4--------|-2--------------|-8-----8-6--6-6-|

|-0--------|-2--------|-2--------------|-6-----6-6------|

|----------|----------|-0--------------|---------4------|

|

| W W H Q E E Q E E H

|----------|----------|----------------|---------8------|

|----------|----------|-----------9b11r|=9--10-9-9------|

|----------|----------|---------8------|-----8-8-8------|

|----------|----------|----------------|----------------|

|----------|----------|----------------|----------------|

|----------|----------|----------------|----------------|





PM| PM| PM| PM| PM-

E E E E E E E E E E E E E E E E

|-----------------|-----------------|

|-----5-----5-5-5-|-----5-----5-5---|

|-----6-----6-6-6-|-----6-----6-6---|

|-----6-----6-6-6-|-----6-----6-6---|

|-4-4---4-4-------|-4-4---4-4-----4-|

|-----------------|-----------------|

|

| PM---------------------------------

| E E E E E E E E E E E E E E E E

|-----------------|-----------------|

|-5-5-5-5-5-5-5-5-|-5-5-5-5-5-5-5-5-|

|-----------------|-----------------|

|-----------------|-----------------|

|-----------------|-----------------|

|-----------------|-----------------|





---| PM| PM PM--------------|

E E E E E E E E E E E E E E E E

|---------------------|-----------------------------------|

|-----4-----4-----4---|---------------------4---4---4-----|

|-----4-----4-----4---|---------------------4---4---4-----|

|-----4-----4-----4---|---------------------4---4---4-----|

|-2-2---2-2---2-------|-2---2---2---2---2-----------------|

|---------------------|-----------------------------------|

|

|-------------------------------------|

| E E E E E E S S S S S S S S S S S S S S S S S S S S

|---------------------|-----------------------------------|

|-4-4-4-4-4-4-4h5p4h5p|=4h5p4h5p4h5p4h5p4h5p4h5p4h5p4h5---|

|---------------------|-----------------------------------|

|---------------------|-----------------------------------|

|---------------------|-----------------------------------|

|---------------------|-----------------------------------|





PM| PM| PM| PM| PM--------| PM----|

E E E E E E E E E E E E E E E E E E E E E E E E

|-----------------|-----------------|-------------------------------------------------|

|-----2-----2-2-2-|-----4-----4-4---|-------------------------------------------------|

|-----2-----2-2-2-|-----4-----4-4---|-------------1-----------------1-----------1-----|

|-----2-----2-2-2-|-----4-----4-4---|-------------2-----------------2-----------2-----|

|-0-0---0-0-------|-2-2---2-2-----2-|-------------2-----------------2-----------2-----|

|-----------------|-----------------|-0-----0-----------0-----0-----------------------|

|

| PM--------------------------------------------|

| |-3-| |-3-| |-3-| |-3-| |-3-| |-3-| |-3-| |-3-|

| E E E E E E E E E E E E E E E E S S S S S S S S S S S S S S S S S S S S S S S S

|-----------------|-----------------|-7-5-4-7-5-4-7-5-4-7-5-4-7-5-4-7-5-4-7-5-4-7-5-4-|

|-5-5-5-5-5-5-5-5-|-4-4-4-4-4-4-4-4-|-------------------------------------------------|

|-----------------|-----------------|-------------------------------------------------|

|-----------------|-----------------|-------------------------------------------------|

|-----------------|-----------------|-------------------------------------------------|

|-----------------|-----------------|-------------------------------------------------|





+Q E E H

|---------------------5-----4-------------------|

|-----------------------------------------------|

|-(1)-----------x-------------------------------|

|-(2)-----------x-------------------------------|

|-(2)-----------x-------------------------------|

|-----------------------------------------------|

|

| |-3--| |-3-| |-3-| |-3-| |-3-| |-3-| |-3-|

| S S S S S S S S S S S S S S S S S S S S S E

|--7--5-4-7-5-4-7-5-4-7-5-4-7-5-4-7-5-4-7-5-4-4-|

|-----------------------------------------------|

|-----------------------------------------------|

|-----------------------------------------------|

|-----------------------------------------------|

|-----------------------------------------------|





Q E E E E E E E E E S S E E +Q

|--------------------|------------------------|

|--------------------|------------------------|

|-6--6-x--x--6-x--6--|-x-x--6--x-x--x--6-(6)--|

|-6--6-x--x--6-x--6--|-x-x--6--x-x--x--6-(6)--|

|-4--4-x--x--4-x--4--|-x-x--4--x-x--x--4-(4)--|

|--------------------|------------------------|

|

| Q Q +E Q +E Q +E E +H

|----4---(4)---------|------------------------|

|------------5---(5)-|------------------------|

|--------------------|-4---(4)----------------|

|--------------------|---------6---(6)--------|

|--------------------|------------------------|

|--------------------|------------------------|





E E E E E E E E E E +Q E E E E

|---------------------|--------------------------|

|---------------------|--------------------------|

|-x-x--4--x-x--4--x-4-|--x--4----(4)----x-x--x---|

|-x-x--4--x-x--4--x-4-|--x--4----(4)----x-x--x---|

|-x-x--2--x-x--2--x-2-|--x--2----(2)----x-x--x---|

|---------------------|--------------------------|

|

| Q +E Q +E Q +E Q. E Q +E

|---------------------|--------------------------|

|---------4---(4)-----|--------------------------|

|-----------------4---|-(4)-6b8=======6r4---(4)--|

|-6---(6)-------------|--------------------------|

|---------------------|--------------------------|

|---------------------|--------------------------|





Q E E E Q E Q E E E Q E

|-------------------|-------------------|

|-------------------|-------------------|

|-2--2-x--x--2---2--|-4--4-x--x--4---4--|

|-2--2-x--x--2---2--|-4--4-x--x--4---4--|

|-0--0-x--x--0---0--|-2--2-x--x--2---2--|

|-------------------|-------------------|

|

| Q Q +E Q +E Q Q +E Q +E

|-------------------|-------------------|

|----7---(7)--------|----5---(5)--------|

|------------6--(6)-|------------6--(6)-|

|-7-----------------|-7-----------------|

|-------------------|-------------------|

|-------------------|-------------------|





PM--------------|

E E E E E E E E +E Q. H

|-------------------------|---------------|

|-------------------------|---------------|

|-------------------------|---------------|

|-------------------------|---------------|

|-6-6-6-6-6---6---6---6---|-(6)-----------|

|-4-4-4-4-4---4---4---4---|-(4)-----------|

|

| PM--| T T T T

| E E E E S S S S S S S S E Q. H

|-------------------------|--4------------|

|---------9p4-9p4---------|--4------------|

|-------6---------8p6-----|--5------------|

|-------6-----------------|--6------------|

|-6-6-6-6-------------9p6-|---------------|

|-4-4-4-------------------|---------------|





Q E S S S S E E S S

|--------------------------|

|-5---5--5-5-5-5-5-5--5--5-|

|-6---6--6-6-6-6-6-6--6--6-|

|-6---6--6-6-6-6-6-6--6--6-|

|-7---7--7-7-7-7-7-7--7--7-|

|-5---5--5-5-5-5-5-5--5--5-|

|

| Q +E H +E

|-9--(9)-9-----------(9)---|

|-9--(9)-9-----------(9)---|

|-9--(9)-9-----------(9)---|

|-7--(7)-7-----------(7)---|

|--------------------------|

|--------------------------|





Q E S S S S E E S S Q E S S S S E E S S

|--------------------------|-4---4--4-4-4-4-4-4--4--4-|

|-7---7--7-7-7-7-7-7--7--7-|-4---4--4-4-4-4-4-4--4--4-|

|-8---8--8-8-8-8-8-8--8--8-|-4---4--4-4-4-4-4-4--4--4-|

|-9---9--9-9-9-9-9-9--9--9-|-6---6--6-6-6-6-6-6--6--6-|

|-9---9--9-9-9-9-9-9--9--9-|-6---6--6-6-6-6-6-6--6--6-|

|-7---7--7-7-7-7-7-7--7--7-|-4---4--4-4-4-4-4-4--4--4-|

|

| Q +E H +E Q +E H +E

|-7--(7)-7-----------(7)---|-7--(7)-7-----------(7)---|

|-7--(7)-7-----------(7)---|-9--(9)-9-----------(9)---|

|-8--(8)-8-----------(8)---|-8--(8)-8-----------(8)---|

|-9--(9)-9-----------(9)---|-9--(9)-9-----------(9)---|

|--------------------------|--------------------------|

|--------------------------|--------------------------|





Q E S S S S E E S S

|--4----4---4-4-4-4-4-4---4--4-|

|--5----5---5-5-5-5-5-5---5--5-|

|--6----6---6-6-6-6-6-6---6--6-|

|--6----6---6-6-6-6-6-6---6--6-|

|--4----4---4-4-4-4-4-4---4--4-|

|------------------------------|

|

| Q +E H +E

|--9---(9)--9------------(9)---|

|--9---(9)--9------------(9)---|

|--9---(9)--9------------(9)---|

|-11--(11)-11-----------(11)---|

|------------------------------|

|------------------------------|





Q E S S S S E E S S Q E S S S S E E S S

|--2--2--2-2-2-2--2--2-2-2-|-4--4-4-4-4-4-4-4-4-4-|

|--2--2--2-2-2-2--2--2-2-2-|-4--4-4-4-4-4-4-4-4-4-|

|--2--2--2-2-2-2--2--2-2-2-|-4--4-4-4-4-4-4-4-4-4-|

|--4--4--4-4-4-4--4--4-4-4-|-6--6-6-6-6-6-6-6-6-6-|

|--4--4--4-4-4-4--4--4-4-4-|-6--6-6-6-6-6-6-6-6-6-|

|--2--2--2-2-2-2--2--2-2-2-|-4--4-4-4-4-4-4-4-4-4-|

|

| Q E Q E Q Q E E E E Q

|--9--x--9--------9--9-----|-7--x-----------7-----|

|-10--x-10-------10-10-----|-9--x-9---------9-----|

|-11--x-11-------11-11-----|-8--x-----8-----8-----|

|-11--x-11-------11-11-----|-9--x---------9-9-----|

|--------------------------|----------------------|

|--------------------------|----------------------|





Q E S S S S E E S S E Q Q E Q Q E S S S S E E S S

|-4--4-4-4-4-4-4-4-4-4-|-7-7---4--4-4--|--------------------------|

|-5--5-5-5-5-5-5-5-5-5-|-7-7---4--4-4--|-5---5--5-5-5-5-5-5--5--5-|

|-6--6-6-6-6-6-6-6-6-6-|-8-8---5--5-5--|-6---6--6-6-6-6-6-6--6--6-|

|-6--6-6-6-6-6-6-6-6-6-|-9-9---4--4-4--|-6---6--6-6-6-6-6-6--6--6-|

|-4--4-4-4-4-4-4-4-4-4-|-9-9---6--6-6--|-7---7--7-7-7-7-7-7--7--7-|

|----------------------|-7-7---4--4-4--|-5---5--5-5-5-5-5-5--5--5-|

|

| Q E E E E E E E E E Q E Q Q +E H +E

|-4--4-4---4---4-4-4---|-7-7---4--4-4--|-9--(9)-9-----------(9)---|

|-5--5-5---5---5-5-5---|-7-7---4--4-4--|-9--(9)-9-----------(9)---|

|-6--6-6---6---6-6-6---|-7-7---5--5-5--|-9--(9)-9-----------(9)---|

|----------------------|---------------|-7--(7)-7-----------(7)---|

|----------------------|---------------|--------------------------|

|----------------------|---------------|--------------------------|





Q E S S S S E E S S Q E S S S S E E S S

|--------------------------|-4---4--4-4-4-4-4-4--4--4-|

|-7---7--7-7-7-7-7-7--7--7-|-4---4--4-4-4-4-4-4--4--4-|

|-8---8--8-8-8-8-8-8--8--8-|-4---4--4-4-4-4-4-4--4--4-|

|-9---9--9-9-9-9-9-9--9--9-|-6---6--6-6-6-6-6-6--6--6-|

|-9---9--9-9-9-9-9-9--9--9-|-6---6--6-6-6-6-6-6--6--6-|

|-7---7--7-7-7-7-7-7--7--7-|-4---4--4-4-4-4-4-4--4--4-|

|

| Q +E H +E Q +E H +E

|-7--(7)-7-----------(7)---|-7--(7)-7-----------(7)---|

|-7--(7)-7-----------(7)---|-9--(9)-9-----------(9)---|

|-8--(8)-8-----------(8)---|-8--(8)-8-----------(8)---|

|-9--(9)-9-----------(9)---|-9--(9)-9-----------(9)---|

|--------------------------|--------------------------|

|--------------------------|--------------------------|





Q E S S S S E E S S

|--4----4---4-4-4-4-4-4---4--4-|

|--5----5---5-5-5-5-5-5---5--5-|

|--6----6---6-6-6-6-6-6---6--6-|

|--6----6---6-6-6-6-6-6---6--6-|

|--4----4---4-4-4-4-4-4---4--4-|

|------------------------------|

|

| Q +E H +E

|--9---(9)--9------------(9)---|

|--9---(9)--9------------(9)---|

|--9---(9)--9------------(9)---|

|-11--(11)-11-----------(11)---|

|------------------------------|

|------------------------------|





Q E S S S S E E S S

|--2----2---2-2-2-2-2-2---2--2-|

|--2----2---2-2-2-2-2-2---2--2-|

|--2----2---2-2-2-2-2-2---2--2-|

|--4----4---4-4-4-4-4-4---4--4-|

|--4----4---4-4-4-4-4-4---4--4-|

|--2----2---2-2-2-2-2-2---2--2-|

|

| Q +E H +E

|--9---(9)--9------------(9)---|

|-10--(10)-10-----------(10)---|

|-11--(11)-11-----------(11)---|

|-11--(11)-11-----------(11)---|

|------------------------------|

|------------------------------|





Q E S S S S E E S S Q E S S S S E E S S

|-4---4--4-4-4-4-4-4--4--4-|------------------------------|

|-4---4--4-4-4-4-4-4--4--4-|--5------5-5-5-5-5--5--5-5-5--|

|-4---4--4-4-4-4-4-4--4--4-|--6------6-6-6-6-6--6--6-6-6--|

|-6---6--6-6-6-6-6-6--6--6-|--6------6-6-6-6-6--6--6-6-6--|

|-6---6--6-6-6-6-6-6--6--6-|--7------7-7-7-7-7--7--7-7-7--|

|-4---4--4-4-4-4-4-4--4--4-|--5------5-5-5-5-5--5--5-5-5--|

|

| Q +E H +E E S S E S S S S E E S S

|-7--(7)-7-----------(7)---|--9-x-x--9-x-x-x-x--9--9-x-x--|

|-9--(9)-9-----------(9)---|-10-x-x-10-x-x-x-x-10-10-x-x--|

|-8--(8)-8-----------(8)---|--9-x-x--9-x-x-x-x--9--9-x-x--|

|-9--(9)-9-----------(9)---|------------------------------|

|--------------------------|------------------------------|

|--------------------------|------------------------------|





Q E S S S S E E S S Q E Q E E S S Q +E E +H

|-----------------------------|--4---4-4-----4--4--4-4-|---4---(4)-4-(4)----|

|--7------7-7-7-7-7--7--7-7-7-|--7---7-7-----7--7--7-7-|---6---(6)-6-(6)----|

|--8------8-8-8-8-8--8--8-8-8-|--6---6-6-----6--6--6-6-|---6---(6)-6-(6)----|

|--9------9-9-9-9-9--9--9-9-9-|--6---6-6-----6--6--6-6-|---6---(6)-6-(6)----|

|--9------9-9-9-9-9--9--9-9-9-|--4---4-4-----4--4--4-4-|---4---(4)-4-(4)----|

|--7------7-7-7-7-7--7--7-7-7-|------------------------|--------------------|

|

| E S S E S S S S E E S S Q Q E E E E +W

|-11-x-x-11-x-x-x-x-11-11-x-x-|------------------------|--------------------|

|-12-x-x-12-x-x-x-x-12-12-x-x-|--9---9----9--9--9--9---|--(9)---------------|

|-11-x-x-11-x-x-x-x-11-11-x-x-|-11--11---11-11-11-10---|-(10)---------------|

|-----------------------------|-11--11---11-11-11-11---|-(11)---------------|

|-----------------------------|------------------------|--------------------|

|-----------------------------|------------------------|--------------------|





Q E S S S S E E S S

|---------------------------------------|

|--5--------5----5-5-5--5-5----5----5-5-|

|--6--------6----6-6-6--6-6----6----6-6-|

|--6--------6----6-6-6--6-6----6----6-6-|

|--7--------7----7-7-7--7-7----7----7-7-|

|--5--------5----5-5-5--5-5----5----5-5-|

|

| S S S S S S S S S S S S S S S S

|-16-0-0-14-0-0-12-0-0-14-0-0-12-0-14-0-|

|---------------------------------------|

|---------------------------------------|

|---------------------------------------|

|---------------------------------------|

|---------------------------------------|





Q E S S S S E E S S Q E S S S S E E S S

|---------------------------------------|--4--------4----4-4-4--4-4----4----4-4-|

|--7--------7----7-7-7--7-7----7----7-7-|--4--------4----4-4-4--4-4----4----4-4-|

|--8--------8----8-8-8--8-8----8----8-8-|--4--------4----4-4-4--4-4----4----4-4-|

|--9--------9----9-9-9--9-9----9----9-9-|--6--------6----6-6-6--6-6----6----6-6-|

|--9--------9----9-9-9--9-9----9----9-9-|--6--------6----6-6-6--6-6----6----6-6-|

|--7--------7----7-7-7--7-7----7----7-7-|--4--------4----4-4-4--4-4----4----4-4-|

|

| S S S S S S S S S S S S S S S S S S S S S S S S S S S S S S S S

|-16-0-0-14-0-0-12-0-0-14-0-0-12-0-14-0-|-16-0-0-14-0-0-12-0-0-14-0-0-12-0-11-0-|

|---------------------------------------|---------------------------------------|

|---------------------------------------|---------------------------------------|

|---------------------------------------|---------------------------------------|

|---------------------------------------|---------------------------------------|

|---------------------------------------|---------------------------------------|





Q E S S S S E E S S Q E S S S S E E S S

|--4-----4--4-4---4--4--4--4--4-4-|---------------------------------------|

|--5-----5--5-5---5--5--5--5--5-5-|--5--------5----5-5-5--5-5----5----5-5-|

|--6-----6--6-6---6--6--6--6--6-6-|--6--------6----6-6-6--6-6----6----6-6-|

|--6-----6--6-6---6--6--6--6--6-6-|--6--------6----6-6-6--6-6----6----6-6-|

|--4-----4--4-4---4--4--4--4--4-4-|--7--------7----7-7-7--7-7----7----7-7-|

|---------------------------------|--5--------5----5-5-5--5-5----5----5-5-|

|

| E E E E +E E E E S S S S S S S S S S S S S S S S

|-11-12-11----------------11-12---|-16-0-0-14-0-0-12-0-0-14-0-0-12-0-14-0-|

|----------12---(12)---14---------|---------------------------------------|

|---------------------------------|---------------------------------------|

|---------------------------------|---------------------------------------|

|---------------------------------|---------------------------------------|

|---------------------------------|---------------------------------------|





Q E S S S S E E S S

|-----------------------------------------|

|--7--------7----7-7-7--7-7----7----7-7---|

|--8--------8----8-8-8--8-8----8----8-8---|

|--9--------9----9-9-9--9-9----9----9-9---|

|--9--------9----9-9-9--9-9----9----9-9---|

|--7--------7----7-7-7--7-7----7----7-7---|

|

| S S S S S S S S S S S S S S S S

|-16-0-0-14-0-0-12-0-0-14-0-0-12-0-14-0---|

|-----------------------------------------|

|-----------------------------------------|

|-----------------------------------------|

|-----------------------------------------|

|-----------------------------------------|





Q Q E E E S S

|--4-----------------4-----------------4--------4--------4--------4----4----|

|--7-----------------7-----------------7--------7--------7--------7----7----|

|--6-----------------6-----------------6--------6--------6--------6----6----|

|--6-----------------6-----------------6--------6--------6--------6----6----|

|--4-----------------4-----------------4--------4--------4--------4----4----|

|---------------------------------------------------------------------------|

|

| |--3--| |--3--| |--3--| |--3--| |--3--| |--3--| |--3--| |---3---|

| S S S S S S S S S S S S S S S S S S S S S S S S

|-16-14-12-16-14-12-16-14-12-16-14-12-16-14-12-16-14-12-16-14-12-16-14---12-|

|---------------------------------------------------------------------------|

|---------------------------------------------------------------------------|

|---------------------------------------------------------------------------|

|---------------------------------------------------------------------------|

|---------------------------------------------------------------------------|





Q E S S S S E E S S

|--4-----------------4--------x----4-----x----4-----4--------4--------4----4-----|

|--5-----------------5--------x----5-----x----5-----5--------5--------5----5-----|

|--6-----------------6--------x----6-----x----6-----6--------6--------6----6-----|

|--6-----------------6--------x----6-----x----6-----6--------6--------6----6-----|

|--4-----------------4--------x----4-----x----4-----4--------4--------4----4-----|

|--------------------------------------------------------------------------------|

|

| |--3--| |--3--| |--3--| |---3---| |---3---| |--3--| |--3--| |---3---|

| S S S S S S S S S S S S S S S S S S S S S S S S

|-16-14-12----------16-14-12------------16-14---12-------------------------------|

|----------16-14-12----------16-14---14------------16-14-12-16-14-12-------------|

|--------------------------------------------------------------------16-14---13--|

|--------------------------------------------------------------------------------|

|--------------------------------------------------------------------------------|

|--------------------------------------------------------------------------------|





Q E S S S S E E S S

|---------------------------------------|

|--5--------5----5-5-5--5-5----5----5-5-|

|--6--------6----6-6-6--6-6----6----6-6-|

|--6--------6----6-6-6--6-6----6----6-6-|

|--7--------7----7-7-7--7-7----7----7-7-|

|--5--------5----5-5-5--5-5----5----5-5-|

|

| S S S S S S S S S S S S S S S S

|-16-0-0-14-0-0-12-0-0-14-0-0-12-0-14-0-|

|---------------------------------------|

|---------------------------------------|

|---------------------------------------|

|---------------------------------------|

|---------------------------------------|





Q E S S S S E E S S Q E Q E E S S

|---------------------------------------|--4--------4----4--------4----4----4-4-|

|--7--------7----7-7-7--7-7----7----7-7-|--4--------4----4--------4----4----4-4-|

|--8--------8----8-8-8--8-8----8----8-8-|--4--------4----4--------4----4----4-4-|

|--9--------9----9-9-9--9-9----9----9-9-|--6--------6----6--------6----6----6-6-|

|--9--------9----9-9-9--9-9----9----9-9-|--6--------6----6--------6----6----6-6-|

|--7--------7----7-7-7--7-7----7----7-7-|--4--------4----4--------4----4----4-4-|

|

| S S S S S S S S S S S S S S S S S S S S S S S S S S S S S S S S

|-16-0-0-14-0-0-12-0-0-14-0-0-12-0-14-0-|-19-0-0-19-0-0-19-0-0-16-0-0-14-0-16-0-|

|---------------------------------------|---------------------------------------|

|---------------------------------------|---------------------------------------|

|---------------------------------------|---------------------------------------|

|---------------------------------------|---------------------------------------|

|---------------------------------------|---------------------------------------|





Q E S S S S E E S S Q E S S S S E E S S

|--4-----4--4-4-4-4--4--4--4-4-|---------------------------------------|

|--5-----5--5-5-5-5--5--5--5-5-|--5--------5----5-5-5--5-5----5----5-5-|

|--6-----6--6-6-6-6--6--6--6-6-|--6--------6----6-6-6--6-6----6----6-6-|

|--6-----6--6-6-6-6--6--6--6-6-|--6--------6----6-6-6--6-6----6----6-6-|

|--4-----4--4-4-4-4--4--4--4-4-|--7--------7----7-7-7--7-7----7----7-7-|

|------------------------------|--5--------5----5-5-5--5-5----5----5-5-|

|

| E E E Q E E E S S S S S S S S S S S S S S S S

|-12-14-11-12-------11-12-14---|-16-0-0-14-0-0-12-0-0-14-0-0-12-0-14-0-|

|------------------------------|---------------------------------------|

|------------------------------|---------------------------------------|

|------------------------------|---------------------------------------|

|------------------------------|---------------------------------------|

|------------------------------|---------------------------------------|





Q E Q E E S S

|-----------------------------------------|

|--7--------7----7--------7----7----7-7---|

|--8--------8----8--------8----8----8-8---|

|--9--------9----9--------9----9----9-9---|

|--9--------9----9--------9----9----9-9---|

|--7--------7----7--------7----7----7-7---|

|

| S S S S S S S S S S S S S S S S

|-16-0-0-14-0-0-12-0-0-14-0-0-12-0-14-0---|

|-----------------------------------------|

|-----------------------------------------|

|-----------------------------------------|

|-----------------------------------------|

|-----------------------------------------|





Q E Q E E S S

|----------------------------------------------------------------------------|

|--9-----------------9--------9-----------------9--------9--------9-----9----|

|-11----------------11-------11----------------11-------11-------11----11----|

|-11----------------11-------11----------------11-------11-------11----11----|

|----------------------------------------------------------------------------|

|----------------------------------------------------------------------------|

|

| |--3--| |--3--| |--3--| |--3--| |--3--| |--3--| |--3--| |---3----|

| S S S S S S S S S S S S S S S S S S S S S S S S

|-16-14-12-16-14-12-16-14-12-16-14-12-16-14-12-16-14-12-16-14-12-16-14----12-|

|----------------------------------------------------------------------------|

|----------------------------------------------------------------------------|

|----------------------------------------------------------------------------|

|----------------------------------------------------------------------------|

|----------------------------------------------------------------------------|





Q H.

|----------------------------------------------------|

|--9-----------------9-------------------------------|

|--9-----------------9-------------------------------|

|-11----------------11-------------------------------|

|----------------------------------------------------|

|----------------------------------------------------|

|

| |--3--| |--3--| |--3---| |--3--| |--3--|

| S S S S S S S S S S S S S S S Q.

|-16-21-16-------------------------------------------|

|----------19-18-16-----19-18-16----16-18-16---------|

|-------------------18-----------18----------18------|

|----------------------------------------------------|

|----------------------------------------------------|

|----------------------------------------------------|





W +E Q Q Q E H +Q. E +E Q Q Q.

|--4--------|--(4)-4------------4-|------------------|----------------|

|--5--------|--(5)----5-----------|-4-----(4)------4-|-(4)-------4----|

|--6--------|--(6)-------6--------|-4-----(4)--------|-----4-----4----|

|--6--------|--(6)----------------|-4-----(4)--------|--------4--4----|

|--4--------|--(4)----------------|-2-----(2)--------|----------------|

|-----------|---------------------|------------------|----------------|

|

| W +H. +Q H. +Q W

|-----------|---------------------|------------------|----------------|

|-14--------|-(14)---------(14)S==|=4----------(4)S==|==7-------------|

|-----------|---------------------|------------------|----------------|

|-----------|---------------------|------------------|----------------|

|-----------|---------------------|------------------|----------------|

|-----------|---------------------|------------------|----------------|





W W H H

|--------------|--------------|-------4-------|

|-2------------|-4------------|-------5-------|

|-2------------|-4------------|-------6-------|

|-2------------|-4------------|-6-----6-------|

|-0------------|-2------------|-4-----4-------|

|--------------|--------------|---------------|

|

| H. +Q H. +Q H. +Q

|--------------|--------------|---------------|

|-2-------(2)S=|=7-------(7)S=|=9--------(9)--|

|--------------|--------------|---------------|

|--------------|--------------|---------------|

|--------------|--------------|---------------|

|--------------|--------------|---------------|





Q E E Q Q

|----------------------------8-----------8--------------|

|-9b11r==========9-----7-----9-----------9--------------|

|-------------------------------------------------------|

|-------------------------------------------------------|

|-------------------------------------------------------|

|-------------------------------------------------------|

|

| |-----------------------3------------------------|

| S S S S S S S S S S S S S S S S S S S S S S S S

|-9----7-6-9-7-6----------------------------------------|

|----------------9-7-6-9-7-6----------------------------|

|----------------------------8-6-4-8-6-4----------------|

|----------------------------------------8-6-4----------|

|----------------------------------------------8-6-4----|

|-------------------------------------------------------|





PM| PM| PM| PM| PM

E E E E E E E E E E E E E E E E

|-----------------|-----------------|

|-----5-----5-5-5-|-----5-----5---5-|

|-----6-----6-6-6-|-----6-----6---6-|

|-----6-----6-6-6-|-----6-----6---6-|

|-4-4---4-4-------|-4-4---4-4---4---|

|-----------------|-----------------|

|

| PM---------------------------------

| E E E E E E E E E E E E E E E E

|-----------------|-----------------|

|-5-5-5-5-5-5-5-5-|-5-5-5-5-5-5-5-5-|

|-----------------|-----------------|

|-----------------|-----------------|

|-----------------|-----------------|

|-----------------|-----------------|





PM| PM| PM PM--| PM--| PM

E E E E E E E E E E E E E E E E

|---------------------|-----------------------------------|

|-----4-----4-----4---|---------4-----------4-------4-----|

|-----4-----4-----4---|---------4-----------4-------4-----|

|-----4-----4-----4---|---------4-----------4-------4-----|

|-2-2---2-2---2-------|-2---2-------2---2-------2---------|

|---------------------|-----------------------------------|

|

|-------------------------------------|

| E E E E E E S S S S S S S S S S S S S S S S S S S S

|---------------------|-----------------------------------|

|-4-4-4-4-4-4-4h5p4h5p|=4h5p4h5p4h5p4h5p4h5p4h5p4h5p4h5---|

|---------------------|-----------------------------------|

|---------------------|-----------------------------------|

|---------------------|-----------------------------------|

|---------------------|-----------------------------------|





PM| PM| PM PM------| PM------| PM----| PM

E E E E E E E E E E E E E E E E E E E E E E E E

|-----------------|-----------------|-----------------------------------------|

|-----2-----2---2-|-----------------|-----------------------------------------|

|-----2-----2---2-|-----------4-----|-----9-----------------9-----------9-----|

|-----2-----2---2-|-----------4-----|-----9-----------------9-----------9-----|

|-0-0---0-0---0---|-2-2-2-2-2---2-2-|-7-7-------7-----7-----------7-----------|

|-----------------|-----------------|-----------------------------------------|

|

| PM------------------------------------|

| |-3-| |-3-| |-3-| |-3-| |-3-| |-3-|

| E E E E E E E E E E E E E E E E E E S S S S S S S S S S S S S S S S S S

|-----------------|-----------------|-4-4-7-5-4-7-5-4-7-5-4-7-5-4-7-5-4-7-5-4-|

|-5-5-5-5-5-5-5-5-|-4-4-4-4-4-4-4-4-|-----------------------------------------|

|-----------------|-----------------|-----------------------------------------|

|-----------------|-----------------|-----------------------------------------|

|-----------------|-----------------|-----------------------------------------|

|-----------------|-----------------|-----------------------------------------|





PM----| PM----|

E E E E E E Q

|-------------------------------7----------------|

|-------------------------------9----------------|

|-------------9-----------------9-----9----------|

|-------------9-----------------------9----------|

|-7-----7-----------7-----7-----------7----------|

|------------------------------------------------|

|

| |-3-| |-3-| |-3-| |-3-| |-3-| |-3-| |-3-|

| S S S S S S S S S S S S S S S S S S S S S E

|-7-5-4-7-5-4-7-5-4-7-5-4-7-5-4-7-5-4-7-5-4-4----|

|------------------------------------------------|

|------------------------------------------------|

|------------------------------------------------|

|------------------------------------------------|

|------------------------------------------------|





PM| PM PM| PM| PM PM| PM PM| PM PM

Q E E E E E E E E E E E E E E Q E E E E E E E E E S S E E E E

|-----4-----4---4-|-----------------|-----------------|--------------------|

|-----5-----5---5-|-----------------|-----4-----4---4-|-----4-------4---4--|

|-6---6-----6---6-|-----6-----6---6-|-----4-----4---4-|-----4-------4---4--|

|-6---6-----6---6-|-----6-----6---6-|-6---6-----6---6-|-----6-x-x---6---6--|

|-4-----4-4---4---|-4-4---4-4---4---|-6---6-----6---6-|-----6-x-x---6---6--|

|-----------------|-----------------|-4-----4-4---4---|-4-4-------4---4----|

|

| PM| PM| PM PM| PM PM| PM| PM PM----|

| E E E E E E E E E E E E E E Q E E E E E E E E E E E E E E E E

|-----4-----4---4-|-----4---4-7-4---|-----------------|--------------------|

|-----5-----5---5-|-----5---5-5-5---|-----4-----4---4-|---7---7---4-----4--|

|-6-6---6-6---6---|-6-6---6---------|-----4-----4---4-|-------------4------|

|-----------------|-----------------|-6-6---6-6---6---|-6---6---------6----|

|-----------------|-----------------|-----------------|--------------------|

|-----------------|-----------------|-----------------|--------------------|





PM| PM| PM PM| PM| PM PM------------------------------------|

E E E E E E E E E E E E E E E E E E E E E E E E

|-----------------|-----------------|---------------------------------------------|

|-----------------|-----------------|---------------------------------------------|

|-----------------|-----------------|---------------------------------------------|

|-----4-----4---4-|-----7-----7---7-|---------------------------------------------|

|-----4-----4---4-|-----7-----7---7-|-6--6-----6-----6-----6-----6-----6-----6----|

|-2-2---2-2---2---|-5-5---5-5---5---|-4--4-----4-----4-----4-----4-----4-----4----|

|

| PM------------------------------|

| E E E E E E E E E E E E E E E E E S S S S S S S S S S S S S S

|-----------------|-----------------|---------------------------------------------|

|-----------------|-----------------|---13h14p13h14p13h14p13h14p13h14p13h14p13h14-|

|-6-6-6-6-6-6-6-6-|-6-6-6-6-6-6-6-6-|---------------------------------------------|

|-7-7-7-7-7-7-7-7-|-7-7-7-7-7-7-7-7-|---------------------------------------------|

|-----------------|-----------------|---------------------------------------------|

|-----------------|-----------------|---------------------------------------------|





+E Q. H

|----------------------------------------|

|----------------------------------------|

|----------------------------------------|

|----------------------------------------|

|-(6)------------------------------------|

|-(4)------------------------------------|

|

| |--3---| |--3---| |--3--|

| S S S S S S S S S +E H

|-11--12-14-11--12-11--------------------|

|---------------------12-----------------|

|------------------------14-13-(13)------|

|----------------------------------------|

|----------------------------------------|

|----------------------------------------|





Q E S S S S E E S S

|----------------------------|

|-5---5--5-5--5--5-5-5--5--5-|

|-6---6--6-6--6--6-6-6--6--6-|

|-6---6--6-6--6--6-6-6--6--6-|

|-7---7--7-7--7--7-7-7--7--7-|

|-5---5--5-5--5--5-5-5--5--5-|

|

| Q +E E +E Q E

|-9--(9)-----------9----9----|

|-9--(9)-----------9----9----|

|-9--(9)-9---(9)---9---(9)---|

|-7--(7)-7---(7)---7---(7)---|

|----------------------------|

|----------------------------|





Q E S S S S E E S S Q E S S S S E E S S

|--------------------------|-4---4--4-4-4-4--4--4-4-4-|

|-7---7--7-7--7--7-7-7-7-7-|-4---4--4-4-4-4--4--4-4-4-|

|-8---8--8-8--8--8-8-8-8-8-|-4---4--4-4-4-4--4--4-4-4-|

|-9---9--9-9--9--9-9-9-9-9-|-6---6--6-6-6-6--6--6-6-6-|

|-9---9--9-9--9--9-9-9-9-9-|-6---6--6-6-6-6--6--6-6-6-|

|-7---7--7-7--7--7-7-7-7-7-|-4---4--4-4-4-4--4--4-4-4-|

|

| Q +E E +E Q E Q +E Q +E E E

|-7--(7)-7---(7)---9---7---|-7--(7)-7-------(7)-x-9---|

|-7--(7)-7---(7)---7---7---|-9--(9)-9-------(9)-x-9---|

|-8--(8)-8---(8)---8---8---|-8--(8)-8-------(8)-------|

|-9--(9)-9---(9)-------9---|-9--(9)-9-------(9)-------|

|--------------------------|--------------------------|

|--------------------------|--------------------------|





Q E S S S S E E S S Q E S S S S E E S S Q E S S S S E E S S

|-4---4--4-4-4-4---4--4-4-4-|--2--2-2-2-2-2-2-2-2-2-|-4---4-4-4-4-4-4-4-4-4-|

|-5---5--5-5-5-5---5--5-5-5-|--2--2-2-2-2-2-2-2-2-2-|-4---4-4-4-4-4-4-4-4-4-|

|-6---6--6-6-6-6---6--6-6-6-|--2--2-2-2-2-2-2-2-2-2-|-4---4-4-4-4-4-4-4-4-4-|

|-6---6--6-6-6-6---6--6-6-6-|--4--4-4-4-4-4-4-4-4-4-|-6---6-6-6-6-6-6-6-6-6-|

|-4---4--4-4-4-4---4--4-4-4-|--4--4-4-4-4-4-4-4-4-4-|-6---6-6-6-6-6-6-6-6-6-|

|---------------------------|--2--2-2-2-2-2-2-2-2-2-|-4---4-4-4-4-4-4-4-4-4-|

|

| E E E Q +Q S S Q E E E E E E E E E E E E Q

|-x-7-----------------------|--9--x-----------------|-7---------------------|

|-x-7----9--------(9)-------|-10--x-----------------|-9-----7---9---7-------|

|-----x--9--------(9)---x-x-|-11--x-9---x---8-x-6---|-8---8-----------------|

|-----x-11-------(11)---x-x-|-11--x-----------------|-9-9-------------9-----|

|---------------------------|-----------------------|-----------------------|

|---------------------------|-----------------------|-----------------------|





Q E S S S S E E S S E Q Q E Q Q E S S S S E E S S

|-4---4--4-4-4-4-4-4-4-4-|-7-7----4---4--4-----|----------------------------|

|-5---5--5-5-5-5-5-5-5-5-|-7-7----4---4--4-----|-5---5--5-5--5--5-5-5--5--5-|

|-6---6--6-6-6-6-6-6-6-6-|-8-8----5---5--5-----|-6---6--6-6--6--6-6-6--6--6-|

|-6---6--6-6-6-6-6-6-6-6-|-9-9----4---4--4-----|-6---6--6-6--6--6-6-6--6--6-|

|-4---4--4-4-4-4-4-4-4-4-|-9-9----6---6--6-----|-7---7--7-7--7--7-7-7--7--7-|

|------------------------|-7-7----4---4--4-----|-5---5--5-5--5--5-5-5--5--5-|

|

| Q +E S S Q E E E E E Q E E S S Q +E E +E Q E

|-4--(4)-4-4-4-----x-9---|-x-7-----------------|-9--(9)-----------9----9----|

|-5--(5)-5-5-5-----x-9---|-x-7-x--9---9--9-x-x-|-9--(9)-----------9----9----|

|-6--(6)-6-6-6-----------|-----x--8---8--8-x-x-|-9--(9)-9---(9)---9---(9)---|

|------------------------|-------10--10-10-----|-7--(7)-7---(7)---7---(7)---|

|------------------------|---------------------|----------------------------|

|------------------------|---------------------|----------------------------|





Q E S S S S E E S S

|--------------------------|

|-7---7--7-7--7--7-7-7-7-7-|

|-8---8--8-8--8--8-8-8-8-8-|

|-9---9--9-9--9--9-9-9-9-9-|

|-9---9--9-9--9--9-9-9-9-9-|

|-7---7--7-7--7--7-7-7-7-7-|

|

| Q +E E +E Q E

|-7--(7)-7---(7)---9---7---|

|-7--(7)-7---(7)---7---7---|

|-8--(8)-8---(8)---8---8---|

|-9--(9)-9---(9)-------9---|

|--------------------------|

|--------------------------|





Q E S S S S E E S S Q E S S S S E E S S

|-4---4--4-4-4-4--4--4-4-4-|-4---4--4-4-4-4---4--4-4-4-|

|-4---4--4-4-4-4--4--4-4-4-|-5---5--5-5-5-5---5--5-5-5-|

|-4---4--4-4-4-4--4--4-4-4-|-6---6--6-6-6-6---6--6-6-6-|

|-6---6--6-6-6-6--6--6-6-6-|-6---6--6-6-6-6---6--6-6-6-|

|-6---6--6-6-6-6--6--6-6-6-|-4---4--4-4-4-4---4--4-4-4-|

|-4---4--4-4-4-4--4--4-4-4-|---------------------------|

|

| Q +E Q +E E E E E E Q +Q S S

|-7--(7)-7-------(7)-x-9---|-x-7-----------------------|

|-9--(9)-9-------(9)-x-9---|-x-7----9--------(9)-------|

|-8--(8)-8-------(8)-------|-----x--9--------(9)---x-x-|

|-9--(9)-9-------(9)-------|-----x-11-------(11)---x-x-|

|--------------------------|---------------------------|

|--------------------------|---------------------------|





Q E S S S S E E S S Q E S S S S E E S S

|-2---2-2-2-2-2-2-2--2--2-|-4---4-4-4-4-4--4--4-4-4-|

|-2---2-2-2-2-2-2-2--2--2-|-4---4-4-4-4-4--4--4-4-4-|

|-2---2-2-2-2-2-2-2--2--2-|-4---4-4-4-4-4--4--4-4-4-|

|-4---4-4-4-4-4-4-4--4--4-|-6---6-6-6-6-6--6--6-6-6-|

|-4---4-4-4-4-4-4-4--4--4-|-6---6-6-6-6-6--6--6-6-6-|

|-2---2-2-2-2-2-2-2--2--2-|-4---4-4-4-4-4--4--4-4-4-|

|

| E E E H +E E E E Q +Q S S

|-------2-----------(2)---|-------4-------(4)---x-x-|

|-------2-----------(2)---|-------4-------(4)---x-x-|

|-2-2-2-2-----------(2)---|-4-4-4-4-------(4)---x-x-|

|-4-4-4-------------------|-6-6-6-------------------|

|-4-4-4-------------------|-6-6-6-------------------|

|-------------------------|-------------------------|





Q E S S S S E E S S

|-------------------------------|

|--5------5-5-5--5-5-5----5-5-5-|

|--6------6-6-6--6-6-6----6-6-6-|

|--6------6-6-6--6-6-6----6-6-6-|

|--7------7-7-7--7-7-7----7-7-7-|

|--5------5-5-5--5-5-5----5-5-5-|

|

| E S S E S S E S S E S S

|--9-x-x--9-x-x--9---x-x--9-x-x-|

|-10-x-x-10-x-x-10---x-x-10-x-x-|

|--9-x-x--9-x-x--9---x-x--9-x-x-|

|-------------------------------|

|-------------------------------|

|-------------------------------|





Q E S S S S E E S S Q E Q E E S S Q +E E +H

|----------------------------------|--4--4-4------4-4-4-4-|--4--(4)-4-(4)----|

|--7------7-7-7--7-7-7----7----7-7-|--7--7-7------7-7-7-7-|--6--(6)-6-(6)----|

|--8------8-8-8--8-8-8----8----8-8-|--6--6-6------6-6-6-6-|--6--(6)-6-(6)----|

|--9------9-9-9--9-9-9----9----9-9-|--6--6-6------6-6-6-6-|--6--(6)-6-(6)----|

|--9------9-9-9--9-9-9----9----9-9-|--4--4-4------4-4-4-4-|--4--(4)-4-(4)----|

|--7------7-7-7--7-7-7----7----7-7-|----------------------|------------------|

|

| |-----3-----|

| E S S E S S Q Q Q H +H W

|-11-x-x-11-x-x-11-----11---11-----|--9-------(9)---------|------------------|

|-12-x-x-12-x-x-12-----12---12-----|--9-------(9)---------|------------------|

|-11-x-x-11-x-x-11-----11---11-----|-11------(11)---------|-10---------------|

|----------------------------------|-11------(11)---------|-11---------------|

|----------------------------------|----------------------|-11---------------|

|----------------------------------|----------------------|------------------|





W +E Q +E E Q +E

|-4---------------|-(4)-------------------|

|-5---------------|-(5)-5---(5)-----------|

|-6---------------|-(6)---------6---------|

|-6---------------|-(6)-----------6---(6)-|

|-4---------------|-(4)-------------------|

|-4---------------|-----------------------|

|

| PM---------------------------------------

| E E E E E E E E E E E E E E E E

|-----------------|-----------------------|

|-9-9-9-9-9-9-9-9-|--9--9-9--9--9-9-9--9--|

|-9-9-9-9-9-9-9-9-|--9--9-9--9--9-9-9--9--|

|-----------------|-----------------------|

|-----------------|-----------------------|

|-----------------|-----------------------|





H +Q. E Q Q Q E E

|-4-------(4)-------|---------------------|

|-4-------(4)-------|---------------------|

|-4-------(4)-----6-|-6b8r==6---6b8r==6-4-|

|-6-------(6)-------|---------------------|

|-6-------(6)-------|---------------------|

|-4-------(4)-------|---------------------|

|

|---------------------------------------|

| E E E E E E E E E E E E E E E E

|-------------------|---------------------|

|-9-9-9-9--9--9-9-9-|-9---9-9-9-9---9-9-9-|

|-9-9-9-9--9--9-9-9-|-9---9-9-9-9---9-9-9-|

|-------------------|---------------------|

|-------------------|---------------------|

|-------------------|---------------------|





H H H H H H

|---------2-------|---------4-------|---------4-------|

|---------2-------|---------4-------|---------5-------|

|-2-------2-------|-5-------5-------|---------6-------|

|-4-------4-------|-6-------6-------|---------6-------|

|-4-------4-------|-6-------6-------|-4---------------|

|-2---------------|-4---------------|-----------------|

|

| PM------------------------------------------------|

| E E E E E E E E E E E E E E E E E E E E E E E E

|-----------------|-----------------|-----------------|

|-9-9-9-9-9-9-9-9-|-9-9-9-9-9-9-9-9-|-9-9-9-9-9-9-9-9-|

|-9-9-9-9-9-9-9-9-|-9-9-9-9-9-9-9-9-|-9-9-9-9-9-9-9-9-|

|-----------------|-----------------|-----------------|

|-----------------|-----------------|-----------------|

|-----------------|-----------------|-----------------|





H H

|----------------------------------------|

|-------------------4--------------------|

|-------------------4--------------------|

|-------------------4--------------------|

|-2--------------------------------------|

|----------------------------------------|

|

| E S S S S S S S S S S S S S S

|---12-9-12-9-12-9-12-9-12-9-12-9--------|

|---------------------------------12-9---|

|----------------------------------------|

|----------------------------------------|

|----------------------------------------|

|----------------------------------------|





H H H Q Q

|--4----------|---------------------------|

|--5----------|--5------------------------|

|--6-----6----|--------------------6------|

|--6----------|------------------------6--|

|--4----------|---------------------------|

|--4----------|---------------------------|

|

| ~~~

| +W S S S S S S E +H

|-------------|-12p9----------------------|

|-(9)---------|------9h10p9---------------|

|-------------|-------------9-------------|

|-------------|---------------11-(11)-----|

|-------------|---------------------------|

|-------------|---------------------------|





H H H H

|-----------------4-------------|-----------------------------------|

|-----------------4-------------|--7--------------------7-----------|

|---4-------------4-------------|--9b11r================8-----------|

|---6-------------6-------------|-----------------------------------|

|---6---------------------------|-----------------------------------|

|---4---------------------------|-----------------------------------|

|

| |---3----| |--3--| |-3--|

| S S E +H +E S S E E E E E E E E E Q

|-/11h12p11-(11)-----(11)-14-12-|-14p===12p11-----------------------|

|-------------------------------|-------------14p12p11--------------|

|-------------------------------|----------------------13p11s9-11---|

|-------------------------------|-----------------------------------|

|-------------------------------|-----------------------------------|

|-------------------------------|-----------------------------------|





PM-------------|

H H H H E E E E E E E E

|-----------2----------|-------------------------|-------------------|

|-----------2----------|-------------------2-----|-------------------|

|---2-------2----------|-------------------2-----|--6--6-6-6-6-6-6-6-|

|---4-------4----------|---2---------------2-----|--6--6-6-6-6-6-6-6-|

|---4------------------|---0---------------0-----|-------------------|

|---2------------------|-------------------------|-------------------|

|

| +Q. Q E E E +E E E +E +H Q. Q E Q

|----------------------|------11-12-(12)-(12)----|-11------7---4-4---|

|----------------12-14-|-(14)--------------------|-------------------|

|-(11)---13---14-------|-------------------------|-------------------|

|----------------------|-------------------------|-------------------|

|----------------------|-------------------------|-------------------|

|----------------------|-------------------------|-------------------|





PM--------------------------|

E E E E E E E E Q E H E Q H.

|---------------------------------|--------------|-----------|

|---------------------------------|--------------|-----------|

|-5---5---5---5---5---5---5---5---|-5\-----------|-----------|

|-6---6---6---6---6---6---6---6---|-6\---------6-|-8\--------|

|---------------------------------|------------6-|-8\--------|

|---------------------------------|------------4-|-6\--------|

|

| S S S S S S S S S S S S S S S S Q E H E Q H.

|-4-4-4-4-4-4-4-4-4-4-4-4-4-4-4-4-|-4\---------4-|-6\--------|

|-4-4-4-4-4-4-4-4-4-4-4-4-4-4-4-4-|-4\---------4-|-6\--------|

|---------------------------------|--------------|-----------|

|---------------------------------|--------------|-----------|

|---------------------------------|--------------|-----------|

|---------------------------------|--------------|-----------|





Q E S S S S E E S S

|----------------------------------|

|--7----7---7-7---7--7--7-7---7--7-|

|--8----8---8-8---8--8--8-8---8--8-|

|--8----8---8-8---8--8--8-8---8--8-|

|--9----9---9-9---9--9--9-9---9--9-|

|--7----7---7-7---7--7--7-7---7--7-|

|

| Q +E E +E Q E

|-11--(11)-------------11----11----|

|-11--(11)-------------11----11----|

|-11--(11)-11---(11)---11---(11)---|

|--9---(9)--9----(9)----9----(9)---|

|----------------------------------|

|----------------------------------|





Q E S S S S E E S S Q E S S S S E E S S

|------------------------------------|--6----6---6-6-6-6---6--6--6-6-|

|--9----9---9--9---9---9--9--9--9--9-|--6----6---6-6-6-6---6--6--6-6-|

|-10---10--10-10--10--10-10-10-10-10-|--6----6---6-6-6-6---6--6--6-6-|

|-11---11--11-11--11--11-11-11-11-11-|--8----8---8-8-8-8---8--8--8-8-|

|-11---11--11-11--11--11-11-11-11-11-|--8----8---8-8-8-8---8--8--8-8-|

|--9----9---9--9---9---9--9--9--9--9-|--6----6---6-6-6-6---6--6--6-6-|

|

| Q +E E +E Q E Q E Q +E E E

|--9---(9)--9-----(9)----11-----9----|-11----9---9--------(9)-x-11---|

|--9---(9)--9-----(9)-----9-----9----|-11--(11)-11-------(11)-x-11---|

|-10--(10)-10----(10)----10----10----|-10--(10)-10-------(10)--------|

|-11--(11)-11----(11)----------11----|-11--(11)-11-------(11)--------|

|------------------------------------|-------------------------------|

|------------------------------------|-------------------------------|





Q E S S S S E E S S Q E S S S S E E S S

|-6---6--6-6-6-6---6--6-6-6-|--4--4--4-4-4-4--4-4-4-4-|

|-7---7--7-7-7-7---7--7-7-7-|--4--4--4-4-4-4--4-4-4-4-|

|-8---8--8-8-8-8---8--8-8-8-|--4--4--4-4-4-4--4-4-4-4-|

|-8---8--8-8-8-8---8--8-8-8-|--6--6--6-6-6-6--6-6-6-6-|

|-6---6--6-6-6-6---6--6-6-6-|--6--6--6-6-6-6--6-6-6-6-|

|---------------------------|--4--4--4-4-4-4--4-4-4-4-|

|

| E E E Q +Q S S Q E E E E E E

|-x-9-----------------------|-11--x---------
Listen to this song at Rdio  
Get this song at amazon.com     Ringtones Ringtones  eMusic  

Learn to play: Songwriting, Piano, Harmonica, Guitar

Related Aya Hirano Tabs

God Knows tabs


Guitar Tabs




All tabs are property and copyright of their owners. All tabs provided for educational purposes only. Privacy Policy, DMCA, Muzikum