Agustin Barrios

La Catedral Tabs



More from Agustin Barrios

Agustin Barrios Tabs

s=slide
p=pull-off
h=hammer-on
H=harmonic
A=Artificial harmonic


I.

The melody note should be played apoyando rather than
tirando allowing it to be extracted from the
accompaniment.  The melody is the highest note in the
bar.
The numbers under the tab denote left hand fingering.
Enjoy.


Lento
E-|14----------14--|14----------14--|
B-|---0-------0---0|---0-------0---0|
G-|----11--11------|----12--12------|
D-|------12--------|------11--------|
A-|----------------|----------------|
E-|----------------|----------------|
    4   1 2 1   4     4  2 1 2   4
~~~~~~~~~~~~~~~~~~~~~~~~~~~~~~~~~~~~~

E-|12----------12--|15----------15--|
B-|---0-------0---0|---0-------0---0|
G-|----12--12------|----12--12------|
D-|------11--------|------11--------|
A-|----------------|----------------|
E-|----------------|----------------|
    3   1 2 1   3    4   2 1 2   4
~~~~~~~~~~~~~~~~~~~~~~~~~~~~~~~~~~~~~

E-|14----------14--|14----------14--|
B-|---0-------0---0|---0-------0---0|
G-|----11--11------|----12--12------|
D-|------12--------|------11--------|
A-|----------------|----------------|
E-|----------------|----------------|     
~~~~~~~~~~~~~~~~~~~~~~~~~~~~~~~~~~~~~

E-|12----------12--|14----------14--|
B-|---0-------0---0|----------------|
G-|----13--13------|----12--12------|
D-|------12--------|------11--------|
A-|----------------|--12------12--12|
E-|----------------|----------------|
    2   3 1 3   2    4 2 3 1 3 2 4 2
~~~~~~~~~~~~~~~~~~~~~~~~~~~~~~~~~~~~~
   VII.............
E-|10----------10--|12----------12--|
B-|-----7---7------|----------------|
G-|-------7--------|----12--12------|
D-|---7-------7---7|------11--------|
A-|----------------|--12------12--12|
E-|----------------|----------------|
    4 1 1 1 1 1 4 1  4 2 3 1 3 2 4 2
~~~~~~~~~~~~~~~~~~~~~~~~~~~~~~~~~~~~~

E-|14----------14--|10----------10--|
B-|----------------|---0-------0---0|
G-|----12--12------|----11--11------|
D-|------11--------|------12--------|
A-|--13------13--13|----------------|
E-|----------------|----------------|
    4 3 2 1 2 3 4 3  1   2 3 2   1
~~~~~~~~~~~~~~~~~~~~~~~~~~~~~~~~~~~~~

E-|10----------10--|-9-----------9--|
B-|-------0--------|-------0--------|
G-|----11--11------|----10--10------|
D-|---0-------0---0|----------------|
A-|----------------|--11------11--11|
E-|----------------|----------------|
    1   2   2   1    1 3 2   2 3 1 3
~~~~~~~~~~~~~~~~~~~~~~~~~~~~~~~~~~~~~

E-|-9-----------9--|-9-----------9--|
B-|-------0--------|-----7---7------|
G-|----10--10------|----------------|
D-|----------------|-------8--------|
A-|--10------11--11|---9-------9---9|
E-|----------------|----------------|
    1 3 2   2 3 1 3  4 3 1 2 1 3 4 3
~~~~~~~~~~~~~~~~~~~~~~~~~~~~~~~~~~~~~

E-|10----------10--|-9-----------9--|
B-|-----8---8------|-----9---9------|
G-|----------------|----------------|
D-|-------9--------|-------9--------|
A-|---7-------7---7|---8-------8---8|
E-|----------------|----------------|
    4 1 2 3 2 1 4 1  4 1 3 2 3 1 4 1
~~~~~~~~~~~~~~~~~~~~~~~~~~~~~~~~~~~~~
   IX.............. XI..............
E-|-9-----------9--|14----------14--|
B-|-----9---9------|----------------|
G-|------10--------|----11--11------|
D-|---9-------9---9|------11--------|
A-|----------------|--13------13--13|
E-|----------------|----------------|
    1 1 1 2 1 1 1 1  4 2 1 1 1 2 4 2
~~~~~~~~~~~~~~~~~~~~~~~~~~~~~~~~~~~~~

E-|14----------14--|14----------14--|
B-|---0-------0---0|---0-------0---0|
G-|----11--11------|----12--12------|
D-|------12--------|------11--------|
A-|----------------|----------------|
E-|----------------|----------------|
~~~~~~~~~~~~~~~~~~~~~~~~~~~~~~~~~~~~~

E-|12----------12--|15-----------15-|
B-|---0-------0---0|---0-------0---0|
G-|----12--12------|----12--12------|
D-|------11--------|------11--------|
A-|----------------|----------------|
E-|----------------|----------------|
~~~~~~~~~~~~~~~~~~~~~~~~~~~~~~~~~~~~~
                    XI..............
E-|14----------14--|14----------14--|
B-|---0-------0---0|----------------|
G-|----11--11------|----11--11------|
D-|------12--------|------11--------|
A-|----------------|--12------12--12|
E-|----------------|----------------|
                     4 2 1 1 1 2 4 2
~~~~~~~~~~~~~~~~~~~~~~~~~~~~~~~~~~~~~

E-|14----------12--|10----------10--|
B-|-------0--------|----------------|
G-|----11--11------|-----9---9------|
D-|----------------|-------8--------|
A-|--10------10--10|--10------10--10|
E-|----------------|----------------|
    4 1 2   2 1 4 1  4 3 2 1 2 3 4 3
~~~~~~~~~~~~~~~~~~~~~~~~~~~~~~~~~~~~~
                    IV...............
E-|10-----------9--|-9-----------9--|
B-|----------------|----------------|
G-|-------0--------|-----4---4------|
D-|-----8---8------|-------4--------|
A-|---7-------7---7|---5-------5---5|
E-|----------------|----------------|
    4 1 2   2 1 4 1  4 2 1 1 1 2 4 2
~~~~~~~~~~~~~~~~~~~~~~~~~~~~~~~~~~~~~
   ................
E-|-9-----------9--|-3-----------3--|
B-|----------------|-----0---0------|
G-|-----5---5------|-------0--------|
D-|-------4--------|---2-------2---2|
A-|---6-------6---6|----------------|
E-|----------------|----------------|
    4 3 2 1 2 3 4 3  4 2       2 4 2
~~~~~~~~~~~~~~~~~~~~~~~~~~~~~~~~~~~~~

E-|-0-----------0--|-7-----------7--|
B-|---0-------0---0|-------0--------|
G-|----12--12------|-----7---7------|
D-|------12--------|---5-------5---5|
A-|----------------|----------------|
E-|----------------|----------------|
        3 2 3        4 1 3   3 1 4 1
~~~~~~~~~~~~~~~~~~~~~~~~~~~~~~~~~~~~~

E-|-0-----------0--|-7-----------7--|
B-|---0-------0---0|-------0--------|
G-|----12--12------|-----7---7------|
D-|------13--------|---4-------4---4|
A-|----------------|----------------|
E-|----------------|----------------|
        3 2 3        4 1 3   3 1 4 1
~~~~~~~~~~~~~~~~~~~~~~~~~~~~~~~~~~~~~
                    IV...............
E-|-0-----------0--|----------------|
B-|-------0--------|-7-----------7--|
G-|-----6---6------|-----4---4------|
D-|---5-------5---5|-------4--------|
A-|----------------|---5-------5---5|
E-|----------------|----------------|
      2 3   3 2   2  4 2 1 1 1 2 4 2
~~~~~~~~~~~~~~~~~~~~~~~~~~~~~~~~~~~~~
   ................
E-|----------------|-0-------2------|
B-|-7-----------7--|-------0-------0|
G-|-----4---4------|-----6-------6--|
D-|-------5--------|---5-------4----|
A-|---4-------4---4|----------------|
E-|----------------|----------------|
    4 1 1 2 1 1 4 1    3 4   1 2 4
~~~~~~~~~~~~~~~~~~~~~~~~~~~~~~~~~~~~~
                    II..............
E-|-3-------0------|----------------|
B-|-------0-------0|----------------|
G-|-----6-------6--|-4-------3------|
D-|----------------|-----2-----4p2--|
A-|----------------|-------4-------4|
E-|---0-------3----|---2------------|
    1   4     1 4    4 1 1 3 2 4 2 3
~~~~~~~~~~~~~~~~~~~~~~~~~~~~~~~~~~~~~

E-|----------------|-----------0---7|
B-|-0-------------0|-3-----0-----8--|
G-|-----0-------0--|-----0---6------|
D-|-------0---0----|----------------|
A-|---2-----4------|---2------------|
E-|----------------|----------------|
      1     3        2 1     1   3 2
~~~~~~~~~~~~~~~~~~~~~~~~~~~~~~~~~~~~~
                    VII..............
E-|-6---0----------|-------------7--|
B-|---7------------|---------7-----7|
G-|-------6--------|-----7-----7----|
D-|---------8------|-------9--------|
A-|-----------9p7--|---9------------|
E-|---------------9|-7--------------|
    1 2   1 2 3 1 3  1 3 1 4 1 1 1 1
~~~~~~~~~~~~~~~~~~~~~~~~~~~~~~~~~~~~~
...................
E-|10p7---A19------|---------6======|
B-|---A19---A19-A19|H12=====-5======|
G-|-----A19---A19--|H12=====-6======|
D-|----------------|---------4======|
A-|----------------|-H7=====--------|
E-|----------------|-H7=====--------|
    4 1               4      4
                      4      2
                      1      3
                      1      1
~~~~~~~~~~~~~~~~~~~~~~~~~~~~~~~~~~~~~

E-|-7==============|----------------|
B-|-0==============|----------------|
G-|-7==============|----------------|
D-|----------------|----------------|
A-|----------------|----------------|
E-|-7==============|----------------|
    4
    3
    2
~~~~~~~~~~~~~~~~~~~~~~~~~~~~~~~~~~~~~

Part II

(Fingering to come at a later date.)
(maybe)

Andante Religioso

    |       |       |       |        |       |       |       |     
E-|--------------------------------|--------------------------------|
B-|--------------------------------|-0==============================|
G-|-------------------------7--11--|11------------9-11---12-11-----9|
D-|--------------------------------|12==============================|
A-|--------------------------------|--------------------------------|
E-|--------------------------------|--------------------------------|

    |       |       |       |        |       |       |       |     
E-|--------------------------------|--------------------------------|
B-|-0---------------7-------7-----7s12------12----12-5-------7------|
G-|11------------------------------|-0-------0-----0-6--------------|
D-|12------------------------------|12------12----12-7-------7------|
A-|--------------------------------|-------------------------5------|
E-|--------------------------------|--------------------------------|

    |       |       |       |        |       |       |       |     
E-|--------------------------------|--------------------------------|
B-|-8------------------------------|--------------------------------|
G-|----------------11--------------|--------------------------------|
D-|-9---------------8--------------|-4-------------2-4-----5-4-----2|
A-|-7-------8-------9--------------|-5------------------------------|
E-|--------------------------------|-7------------------------------|

    |       |       |       |        |       |       |       |     
E-|--------------------------------|--------------------------------|
B-|--------------------------------|--------------------------------|
G-|--------------------------------|--------------------------------|
D-|-4---------------3-------4------|-4-------2-------0--------------|
A-|-5---------------5-------5------|-5-------4-------2-------------4|
E-|-7---------------6-------5------|-3---------------1-------2------|

   II..............        II.....
    |       |       |       |        |       |       |       |     
E-|--------------------------------|--------------------------------|
B-|--------------------------------|-------------------------3---5--|
G-|-----------------0--------------|---------------------2----------|
D-|-------------------------4------|-2-------0---2---4--------------|
A-|-2-------2-----2-2-------2------|-2---------------0--------------|
E-|-3-------2-------0-------2------|-3-------4----------------------|

                                    VII...........          II.......
    |       |       |       |        |       |       |       |     
E-|--------------------------------|-9---------------5-------4------|
B-|-7-------------5-0--------------|-7-------------7-4-------2------|
G-|-7-------------6-7--------------|--------------------------------|
D-|---------------------0-------6--|-7-------------6-4-------3------|
A-|-------------------------9------|-----------------3-------4------|
E-|-------------6---7--------------|-9------------------------------|

......             XII               X              VIII
    |       |       |       |        |       |       |       |     
E-|-2------14---14-14------12----12|12------10---10-10------10-----9|
B-|--------14---14-12------12----12|10------10---10--8--------------|
G-|-2------------------------------|-------------------------9------|
D-|--------14---14-13------12----12|11------10---10--9-------8------|
A-|-4------13---13-12------11----11|10-------9----9--8-------7------|
E-|-2------------------------------|--------------------------------|

                    V               III     II...........
    |       |       |       |        |       |       |       |     
E-|-7-------7----7--7-------5-----5|-5-------5-----4-2--------------|
B-|-0-------7----7--5-------5-----5|-3-------2----------------------|
G-|-7----0-------------------------|-----------------2--------------|
D-|-----7---7----7--6-------5-----5|-4-------3-------4-------4-----4|
A-|-------976----6--5-------4-----4|-3-------4---------------1------|
E-|--------p-----------------------|--------------------------------|

                                    II.................
    |       |       |       |        |       |       |       |     
E-|-----------------0-------1-----1|-2------------------------------|
B-|-0-------0-----0-0-------0------|--------------------------------|
G-|--------------------------------|-3------------------------------|
D-|-0-------1-------2-------0------|---------4-----4---------4-----4|
A-|-2-------0----------------------|-4---------------4-------1------|
E-|-----------------4-------3------|-2------------------------------|

    |       |       |       |        |       |       |       |     
E-|-----------------0-------2-----2|-3---------------8--------------|
B-|-0-------0-----0-0-------0-----0|-1-----------------------8------|
G-|--------------------------------|---------------------------9----|
D-|-0-------1-----1-2-------1-----1|-2---------------------------10-|
A-|-2-------0-----0----------------|--------------------------------|
E-|-----------------3-------2-----2|-0------------------------------|
                                                             ~~~3~~~
   II.............................
    |       |       |       |        |       |       |       |     
E-|--------------------------------|--------------------------------|
B-|-3-----------------------2------|-0-----------------------2-----3|
G-|-4-----------------------3------|--------------------------------|
D-|-4------------------2454-2------|-0-----------------------2------|
A-|-----------------245-hhp--------|-2-----------------------1------|
E-|-2----------------hh------------|---------2-------4--------------|
                    ~~~7~~~
    |       |       |       |        |       |       |       |     
E-|-------------------------9----10|-7==============================|
B-|-0------------------------------|-0---------------------A19------|
G-|-------------------------9------|-7=============================-|
D-|-0-----------------------8------|---------4======================|
A-|-2-------5-------7-------9------|--------------------------------|
E-|--------------------------------|-----------------7==============|

     |       |       |       |      
E-|--------------------------------|
B-|A12============================-|
G-|--------------------------------|
D-|--------------------------------|
A-|--------------------------------|
E-|--------------------------------|

~~~~~~~~~~~~~~~~~~~~~~~~~~~~~~~~~~~~~~~~~~~~~~~~~~~~~~~~~~~~~~~~~~~~~~~


Sorry, no left hand fingering for III yet.
I haven't found the time.

Part III

Allegro Solomne.

    |   |   |   |   |   |    |   |   |   |   |   |   
E-|------------------------|------------------------|
B-|-----------------3------|-----------------3------|
G-|---------0---4-------4--|---------0---4-------4--|
D-|---4-3h4---4---4---4---4|---4-3h4---4---4---4---4|
A-|-2----------------------|-2----------------------|
E-|------------------------|------------------------|

   II...............................................
    |   |   |   |   |   |    |   |   |   |   |   |   
E-|------------------------|------------------------|
B-|-----------------3------|-----------------3------|
G-|---------2---4-------4--|---------2---4-------4--|
D-|---5-4h5---5---5---5---5|---5-4h5---5---5---5---5|
A-|-2----------------------|-2----------------------|
E-|------------------------|------------------------|

   IV...............................................
    |   |   |   |   |   |    |   |   |   |   |   |   
E-|------------------------|------------------------|
B-|-----------------5------|-----------------5------|
G-|---------4---6-------6--|---------4---6-------6--|
D-|---7-6h7---7---7---7---7|---7-6h7---7---7---7---7|
A-|-4----------------------|-4----------------------|
E-|------------------------|------------------------|
   
    |   |   |   |   |   |    |   |   |   |   |   |
E-|------------------------|------------------------|
B-|---------7-----------5--|---------3-----------2--|
G-|------------------------|------------------------|
D-|---7-6h7---7---5-4h5---5|---4-3h4---4---2-1h2---2|
A-|-5-----------4----------|-2----------------------|
E-|------------------------|-------------0----------|

    |   |   |   |   |   |    |   |   |   |   |   |
E-|------------------------|---------2p0------------|
B-|---------0--------------|-----2-------2----------|
G-|---------------------0--|-3-------------3---0----|
D-|---3-2h3---3---4-3h4---4|---4---4---------4---2--|
A-|------------------------|-----------------------4|
E-|-1-----------2----------|------------------------|

    |   |   |   |   |   |    |   |   |   |   |   |   
E-|------------------------|------------------------|
B-|-----------------3------|-----------------3------|
G-|---------0---4-------4--|---------0---4-------4--|
D-|---4-3h4---4---4---4---4|---4-3h4---4---4---4---4|
A-|-2----------------------|-2----------------------|
E-|------------------------|------------------------|

   II...............................................
    |   |   |   |   |   |    |   |   |   |   |   |   
E-|------------------------|------------------------|
B-|-----------------3------|-----------------3------|
G-|---------2---4-------4--|---------2---4-------4--|
D-|---5-4h5---5---5---5---5|---5-4h5---5---5---5---5|
A-|-2----------------------|-2----------------------|
E-|------------------------|------------------------|

   IV...............................................
    |   |   |   |   |   |    |   |   |   |   |   |   
E-|------------------------|------------------------|
B-|-----------------5------|-----------------5------|
G-|---------4---6-------6--|---------4---6-------6--|
D-|---7-6h7---7---7---7---7|---7-6h7---7---7---7---7|
A-|-4----------------------|-4----------------------|
E-|------------------------|------------------------|
   
    |   |   |   |   |   |    |   |   |   |   |   |
E-|------------------------|------------------------|
B-|---------7-----------5--|---------3-----------2--|
G-|------------------------|------------------------|
D-|---7-6h7---7---5-4h5---5|---4-3h4---4---2-1h2---2|
A-|-5-----------4----------|-2----------------------|
E-|------------------------|-------------0----------|

                            IV......
    |   |   |   |   |   |    |   |   |   |   |   |
E-|------------------------|------------------------|
B-|---------0-----------0--|-----------------0h2h3h5|
G-|-----------------------3|-4----------------------|
D-|---3-2h3---3------------|---4-----------4--------|
A-|---------------3-2h3----|-----5-------5----------|
E-|-1-----------2----------|-------7-6h7------------|

    |   |   |   |   |   |    |   |   |   |   |   |
E-|-2-------2---0-------0--|------------------------|
B-|---3-------3---2-------2|-3----------------------|
G-|-----4-----------3------|---4--------------------|
D-|-------4-----------4----|-----5-------------0h2h3|
A-|------------------------|-------------0h2h4------|
E-|------------------------|-------0h2h3------------|

    |   |   |   |   |   |    |   |   |   |   |   |
E-|-------0-2h5-3p2-0------|-------0-----------5----|
B-|-----3-------------3-2p0|-----0-----------0-----8|
G-|---4--------------------|---6-------6---6--------|
D-|-4----------------------|-7-------5--------------|
A-|------------------------|-------------7-------8--|
E-|------------------------|------------------------|

       VI.....
    |   |   |   |   |   |    |   |   |   |   |   |
E-|-------------0----------|----10p9-7-------0------|
B-|-------6-7h8---2--------|---0------10-8p7---3-2p0|
G-|-----6-----------3p0----|------------------------|
D-|---8-----------------4p2|-0----------------------|
A-|-9----------------------|------------------------|
E-|------------------------|------------------------|


After second time go to B, after third, go to END
If neither, continue going.

   VII..........V.........      VII.....
    |   |   |   |   |   |    |   |   |   |   |   |
E-|------------------------|------------------------|
B-|----10-----------8------|-----7---8p7------------|
G-|-------9-----------7----|-------7-----9-7-6-----0|
D-|---7-------7---5-------5|---0---------------9-7--|
A-|------------------------|-0----------------------|
E-|-9-------9---7-------7--|------------------------|

                            II.............
    |   |   |   |   |   |    |   |   |   |   |   |
E-|------------------------|-----------2------------|
B-|------------------------|---------3---3----------|
G-|------------------------|-------2----------------|
D-|-4p0---0-4p0------------|-----4------------------|
A-|-----0-------7p4-0h4-7p4|-0h5--------------------|
E-|------------------------|------------------------|

   IV...............................................
    |   |   |   |   |   |    |   |   |   |   |   |   
E-|------------------------|------------------------|
B-|-----7-----------7------|-----7-----------7------|
G-|------------------------|------------------------|
D-|---4---4---4---4---4---4|---4---4---4---4---4---4|
A-|-5-------4---5----------|-5-------4---5----------|
E-|---------------------7--|---------------------7--|

   II...............................................
    |   |   |   |   |   |    |   |   |   |   |   |   
E-|------------------------|------------------------|
B-|-----5-----------5------|-----5-----------5------|
G-|------------------------|------------------------|
D-|---2---2---2---2---2---2|---2---2---2---2---2---2|
A-|-4-------2---4----------|-4-------2---4----------|
E-|---------------------5--|---------------------5--|

    |   |   |   |   |   |    |   |   |   |   |   |   
E-|------------------------|------------------------|
B-|-----3-----------3------|-----3-----------3------|
G-|------------------------|------------------------|
D-|---0---0---0---0---0---0|---0---0---0---0---0---0|
A-|-2-------0---2----------|-2-------0---2----------|
E-|---------------------3--|---------------------3--|

   II..................................................
    |   |   |   |   |   |    |   |   |   |   |   |   
E-|------------------------|------------------------|
B-|-----2-----------2------|-----2-----------2------|
G-|------------------------|------------------------|
D-|------------------------|------------------------|
A-|---4---4---4---4---4---4|---4---4---4---4---4---4|
E-|-5-------3---5-------2--|-5-------3---5-------2--|

    |   |   |   |   |   |    |   |   |   |   |   |   
E-|------------------------|------------------------|
B-|-----0-----------0------|-----0-----------0------|
G-|------------------------|------------------------|
D-|------------------------|------------------------|
A-|---2---2---2---2---2---2|---2---2---2---2---2---2|
E-|-3-------2---3-------0--|-3-------2---3-------1--|

    |   |   |   |   |   |    |   |   |   |   |   |
E-|------------------------|------------------------|
B-|-----------------2------|-----5-----------7------|
G-|-----3------------------|------------------------|
D-|---------------2---2---2|---5---5---5---8---8---8|
A-|---4---4---4-1-------1--|-4-------4---7-------7--|
E-|-2-------2--------------|------------------------|

    |   |   |   |   |   |    |   |   |   |   |   |
E-|-----2-----------2------|-----2-----------2-------||
B-|------------------------|-------------------------||
G-|---3---3---3---3---3---3|---3---3---3---3---3---3-@|
D-|-4-----------2----------|-------------------------@|
A-|------------------------|-5-----------4-----------||
E-|---------2-----------2--|---------2-----------2---||

   * B *
   VII.........II..........IV.............
    |   |   |   |   |   |    |   |   |   |   |   |
E-|------------------------|------------------------|
B-|------------------------|------------------------|
G-|-----7p6-6-------4p3-3--|-4-----------4----------|
D-|-----------5-----------2|---4-------4------------|
A-|---7-----------4--------|-----5---5--------------|
E-|-0-----------2----------|-------7----------------|

    |   |    |   |   |   |    |   |   |   |   |   |
E-|-6s7-9p7-10p7------------|------------------------|
B-|--------------8p6---0---0|-2p0-3p2----------------|
G-|------------------7------|---------4p2-0-------0--|
D-|----------------------8--|---------------3-------4|
A-|-------------------------|-----------------5p2----|
E-|-------------------------|------------------------|

                                        VI..........
    |   |   |   |   |   |    |   |   |   |   |   |
E-|---------------------2p0|-3p2-0---------------6h9|
B-|-------------------3----|-------3-2p0-----6h7----|
G-|-0-------0-------4------|---------------6--------|
D-|---3-------4-3h4--------|-------------8----------|
A-|-----5p2----------------|------------------------|
E-|------------------------|------------------------|

   VII.........IV..........
    |   |   |   |   |   |    |   |   |   |   |    |
E-|10p9-7---------------4h7|-6h7-6-------6s7-9p7-10p7|
B-|-------7---------4h5----|-------9-7h9-------------|
G-|---------9p7---4--------|-------------------------|
D-|-------------6----------|-------------------------|
A-|------------------------|-------------------------|
E-|------------------------|-------------------------|

    |   |   |   |   |   |    |   |   |   |   |   |
E-|------------------------|------------------------|
B-|-8p6---0---0-2p0-3p2----|------------------------|
G-|-----7---------------4p2|-0-------0---0-------0--|
D-|---------8--------------|---3-------4---3-------4|
A-|------------------------|-----5p2---------5p2----|
E-|------------------------|------------------------|

                            VI...........VII.........
    |   |   |   |   |   |    |   |   |    |   |   |
E-|---------2p0-3p2-0------|---------6h9-10p9-7------|
B-|-------3-----------3-2p0|-----6h7------------7----|
G-|-----4------------------|---6------------------9p7|
D-|-3h4--------------------|-8-----------------------|
A-|------------------------|-------------------------|
E-|------------------------|-------------------------|

   IV..........        II................
    |   |   |   |   |   |    |   |   |   |   |   |
E-|---------4h7-9p7---0----|---------2h5-7h10--7-0-2|
B-|-----4h5--------10---3p2|-----2h3---------8------|
G-|---4--------------------|---2--------------------|
D-|-6----------------------|-4----------------------|
A-|------------------------|------------------------|
E-|------------------------|------------------------|

    |   |   |   |   |   |    |   |   |   |   |   |
E-|-3p2-0------------------|------------------------|
B-|-------3-2p0---5---2---0|------------------------|
G-|-------------6---4---0--|------------------------|
D-|------------------------|-2h4-2p0-------4-3h4-4-4|
A-|------------------------|---------4p2---4-3h4-4-4|
E-|------------------------|-------------2----------|

    |   |   |   |   |   |    |   |   |   |   |   |
E-|------------------------|------------------------|
B-|------------------------|------------------------|
G-|------------------------|------------------------|
D-|---4-3h4-4-4---4-3h4-4-4|---4-3h4-4-4---4-3h4-4-4|
A-|------------------------|-0-----------1----------|
E-|-3-----------4----------|------------------------|

Go back to start.


END :
   V...........II..........
    |   |   |   |   |   |     |   |   |   |   |   |
E-|------------------------||------------------------|
B-|------------------------||-----0-----------0------|
G-|-----7p6-6-------4p3-3--|@------------------------|
D-|-----------5-----------2|@---0---0---0---1---1---1|
A-|---7-----------4--------||-2-------2---0-------0--|
E-|-0-----------2----------||------------------------|

                            II......................
    |   |   |   |   |   |    |   |   |   |   |   |
E-|------------------------|------------------------||
B-|-----0-----------0------|-----3-----------2------||
G-|------------------------|-------4---4-------3---3@|
D-|---2---2---3---3---3---3|---4-----4-----4-----4--@|
A-|------------------------|------------------------||
E-|-4-------4---3-------3--|-2-----------2----------||

   IV..........VII..............................
    |   |   |   |   |   |    |   |   |   |   |   |
E-|------------------------|-------------7-----------|
B-|------------------------|-7-------------7---------|
G-|-4-----------7----------|---7-------7-----7-----11|
D-|---4-------4---9-------9|-----9---9---------9s12--|
A-|-----5---5-------9---9--|-------9-----------------|
E-|-------7----------10----|-------------------------|

                                          VII........
    |   |   |    |   |   |     |   |   |   |   |   |
E-|10-------------14----14-19|19-----------7----------|
B-|--12------12-15----15-----|15-----------7----------|
G-|----11--11-------16-------|16-----------7----------|
D-|------12------------------|-------------9----------|
A-|--------------------------|------------------------|
E-|--------------------------|------------------------|

   IV.....................
    |   |   |   |   |   |   
E-|------------------------|
B-|------------------------|
G-|-4----------------------|
D-|-4----------------------|
A-|-5----------------------|
E-|-7----------------------|

                                    *** E N D ***

Tabbed BY - JAMES86
Listen to this song at Rdio  
Get this song at amazon.com     Ringtones Ringtones  eMusic  

Learn to play: Songwriting, Piano, Harmonica, Guitar

Related Agustin Barrios Tabs

La Catedral tabs
Vals Op8 No4 tabs
El Sueno De La Munequita tabs
Estudio Inconcluso tabs


Guitar Tabs




All tabs are property and copyright of their owners. All tabs provided for educational purposes only. Privacy Policy, DMCA, Muzikum